Common Children - Hate Chords & Tabs

 

Hate Chords & Tabs

Common Children Chords & Tabs

Version: 1 Type: Tab 0 ratings
1 star 2 stars 3 stars 4 stars 5 stars
comments

Hate Tab

#-----------------------------------------------------------------------------#
#-- File created with Instab - http://www.pconline.com/~smcarey/instab.html --#
#-----------------------------------------------------------------------------#

Author/Artist: Common Children
Title: Hate
Album: Skywire
Transcribed by: Jed
Email: CokeMan007@usa.net

Ignore the top 2 strings.  This is drop D tuning.  Enjoy!
Visit my webpage at http://members.tripod.com/~CokeMan007/index.html

-----------------|------------------------------------------------------------|
-----------------|------------------------------------------------------------|
-----------------|------------------------------------------------------------|
-----------------|------------------------------------------------------------|
-----3-----5-5---|-2x---------------------------------------------------------|
-2-----5---------|------------------------------------------------------------|
 Intro(above)/Verse(below)

-----------------|----|---------|---------------------------------------------|
-----------------|----|---------|---------------------------------------------|
-----------------|----|---------|---------------------------------------------|
-----------------|----|---------|---------------------------------------------|
-----3-----5-7---|-7x-|---------|---------------------------------------------|
-2-----5-------5-|----|-2/------|---------------------------------------------|
 Chorus(below)
[ Tab from: http://www.guitartabs.cc/tabs/c/common_children/hate_tab.html ]
-----------------|------------------------------------------------------------|
-----------------|------------------------------------------------------------|
-----------------|------------------------------------------------------------|
-----------------|------------------------------------------------------------|
-----3-----5-----|-4x---------------------------------------------------------|
-2-----5-----7---|------------------------------------------------------------|
 Chorus2(below)

-----------------|------------------------------------------------------------|
-----------------|------------------------------------------------------------|
-----------------|------------------------------------------------------------|
-----------------|------------------------------------------------------------|
-----------------|-4x---------------------------------------------------------|
-8-----5---2-2---|------------------------------------------------------------|
 Verse/Chorus(8x)/Middle Section(below)

-----------------|-----------------|------------------------------------------|
-----------------|-----------------|------------------------------------------|
-----------------|-----------------|------------------------------------------|
-----------------|-----------------|------------------------------------------|
-----------------|-----------------|-4x---------------------------------------|
-0-0-0-6---2-2---|-0-0-0-6---2-----|------------------------------------------|
 Verse(add an extra "2/" bar)/Chorus(12x)/Chorus2(many times, ends in chaos)
Comments