Common - Be Chords & Tabs

 

Be Chords & Tabs

Common Chords & Tabs

Version: 1 Type: Tab

Be Tab

   
This song is for the bass, but I transform it to a guitar tab
please rate and comment

tuning:E a d g b E (optional tuning:drop E to c tuning)
Important:also hear the song find the pauses that are in the song!

Intro
e)------------------------------------------------------------------------------|
b)------------------------------------------------------------------------------|
g)------------------------------------------------------------------------------|
d)-----------------5-----------------------------------7h8p---------------------|
a)-6------5-------------------------8------------5--------------------5---------|
E)---------------------------8-----------------------------------6--8----8-6-8--|

Verse
e)-------------------------------------------------------------------------------|
b)-------------------------------------------------------------------------------|
g)-------------------------------------------------------------------------------|
d)---8--55---------7--------------------8--5--------7----------------------------|
a)-6---------6p5-------8--5---------6----------6p5-------8---5-------------------|
E)-------------------------------------------------------------------------------|
[ Tab from: http://www.guitartabs.cc/tabs/c/common/be_tab.html ]
Bridge
e)------------------------------------------------------------------------------|
b)------------------------------------------------------------------------------|
g)---8---8----8-----8-----------------------------------------------------------|
d)-6---6---6-----6--------------------------------------------------------------|
a)------------------------------------------------------------------------------|
E)------------------------------------------------------------------------------|

Bass type style
e)-------------------------------------------------------------------------------|
b)-------------------------------------------------------------------------------|
g)-------33-----33----5--77-----33----33--5-2------------------------------------|
d)---5-------5------5--------5------5----------33--------------------------------|
a)-------------------------------------------------------------------------------|
E)-------------------------------------------------------------------------------|

e)-------------------------------------------------------------------------------|
b)-------------------------------------------------------------------------------|
g)----33---33---5-77-8-10-8-7-12-10----7-3/5--2----------------------------------|
d)--5----5----5----------------------10-------3----------------------------------|
a)-------------------------------------------------------------------------------|
E)-------------------------------------------------------------------------------|
When the bass is playing, everyone knows that a bass has a deep sound and when you are 
hearing the song. Try to tune it down to the bass sound and its hard to try to tune it 
like a bass,but makes the sound better.