Commodores - Easy Chords & Tabs

 

Easy Chords & Tabs

Commodores Chords & Tabs

Version: 1 Type: Tab 0 ratings
1 star 2 stars 3 stars 4 stars 5 stars
comments

Easy Tab

Ok, this solo is great, and I was reminded of it earlier when I saw the
Faith No More cover of it, which is nearly exactly the same, so the solo
can be used with either band's song, from what I remember.

|----------------------------------------
|----------------13/---------------------
|-----------13~~-------------------------
|----------------------------------------
|---15p13-------------15p13\11-11~~--11\-
|---------16-----------------------------

[ Tab from: http://www.guitartabs.cc/tabs/c/commodores/easy_tab.html ]
|---------------------------------------------------
|---------16b18-12b13-------------------------------
|---------------------13----------------------------
|------------------------16-13----------------------
|-15p13------------------------16-14-16b18r16p14----
|-------16---------------------------------------16~


|-------------------------------
|----------------13/------------
|-----------13~~----------------
|-------------------------------
|---15p13-------------15p13\11--
|---------16--------------------


|------------------14----------------------------
|---------16b18r16---------16--13----------------
|---------------------15b17------15b17r15h13-----
|--------------------------------------------15--
|-15p13------------------------------------------
|-------16---------------------------------------
Comments