Commodores - Brick House Chords & Tabs

 

Brick House Chords & Tabs

Commodores Chords & Tabs

Version: 1 Type: Tab 0 ratings
1 star 2 stars 3 stars 4 stars 5 stars
comments

Brick House Tab

   
Brick House
-The Commodores

-------------------------------------------------------
Transcribed by Guitar Player Extraordinaire ?Tim Stoll
-------------------------------------------------------
The main riff in this song is played on the Bass guitar.
This page covers the guitar parts, which aren't as distinct, but are still pretty cool.
-------------------------------------------------------
There are three guitar parts to this song: the chorus, the verse, and the bridge.
I?ll give you all three separately, and let you put them in place.
The lyrics are below also, to help you out.
-------------------------------------------------------

Chorus:

??..Am

E----12---12---12------------5------7------5--------5--------5------7------5-|
B----13---13---13------------5------7------5--------5--------5------7------5-|
G----12---12---12------------5------7------5--------5--------5------7------5-|
D----x----x-----x------------x------x------x--------x--------x------x------x-|
A----x----x-----x------------x------x------x--------x--------x------x------x-|
E----x----x-----x------------x------x------x--------x--------x------x------x-|


Verse:

??. Am (repeat throughout verse)
(Play around with this part. It's accurate, but not exactly the same throughout the song)
[ Tab from: http://www.guitartabs.cc/tabs/c/commodores/brick_house_tab.html ]
E----5------5---------5----5------5---------5------5---5---5---5------5-|
B----7------5---------7----7------5---------8------8---8---5---7------5-|
G----5------5---------5----5------5---------5------5---5---5---5------5-|
D----5------5---------5----5------5---------5------5---5---5---5------5-|
A----7------7---------7----7------7---------7------7---7---7---7------7-|
E----5------5---------5----5------5---------5------5---5---5---5------5-|


Bridge:
(Shake it down, shake it down now)

??..A11 (repeat throughout)

E-------x--------x--------------------|
B-------3--------3--------------------|
G-------4--------4--------------------|
D-------5--------5--------------------|
A-------x--------x--------------------|
E-------5--------5--------------------|

-------------------------------------------------------
Brick House (lyrics)

Chorus:
She's a brick----house
Mighty might just lettin' it all hang out
She's a brick----house
The lady's stacked and that's a fact,
ain't holding nothing back.

She's a brick----house
She's the one, the only one,
who's built like a amazon
We're together everybody knows,
and here's how the story goes.

Verse:
1. She knows she got everything
a woman needs to get a man, yeah.
How can she use, the things she use
36-24-36, what a winning hand!


(Chorus)


Verse:
2. The clothes she wears, the sexy ways,
make an old man wish for younger days
She knows she's built and knows how to please
Sure enough to knock a man to his knees


(Chorus)


Bridge:
Shake it down, shake it down now (repeat)


For more great guitar tabs, check out Rimsky's Guitar Page at:
www.angelfire.com/music2/chords/index.html
Comments