Commodores - Brick House Chords & Tabs

 

Brick House Chords & Tabs

Commodores Chords & Tabs

Version: 2 Type: Bass Tab 0 ratings
1 star 2 stars 3 stars 4 stars 5 stars
comments

Brick House Bass Tab

Song: Brick House
Band: The Commodores
Album: Pure Funk
Tabbed by: Rob MacGuffie (SubDubLBC@aol.com)


 This is fun song, not only is it a cool bassline, but its great 
 for people to sing along with. And ther is tons of room for improv.

 Verse: Improv is off the wall, throw in anything 
             once you get to the pop part
                     
                   ::this part is popped::
 |---------------------------------------|
 |-------------------3h5-0-----------5h7-|
 |-0--3-5------------------5-5h7--3------|
 |--------3-4-5--------------------------|

 Variations: These are just a few
[ Tab from: http://www.guitartabs.cc/tabs/c/commodores/brick_house_btab_ver_2.html ]
 1)
 |--------------------------------------|
 |-------------------3h5-0-----------5/-|
 |-0--3-5------------------5-5h7--3-----|
 |--------3-4-5-------------------------|

 2)
 |-------------------------------------|
 |-------------------3h5-0-------------|
 |-0--3-5------------------5-5h7--3--0-|
 |--------3-4-5------------------------|

 3)
 |--------------------------------------|
 |-------------------3h5-0--------------|
 |-0--3-5------------------5-5h7--3-----|
 |--------3-4-5---------------------3h5-|


 Chorus: "She know's that she's got...."
 |---------------------------------------|
 |---------------------------------------|
 |---------------------------------------|
 |-5--5-5--5-5--5-5--5-0h3h4-5--5-5--5-5-|

 Transition back into verse:
 |---------------------|
 |---------------------|
 |---------------------|
 |-5--5--3-3--4-4--5-5-|


::Key::

h = Hammer On
/ = Slide Up

Comments