Comeback Kid - Wake The Dead Chords & Tabs

 

Wake The Dead Chords & Tabs

Comeback Kid Chords & Tabs

Version: 1 Type: Bass Tab 0 ratings
1 star 2 stars 3 stars 4 stars 5 stars
comments

Wake The Dead Bass Tab

Band:Comeback Kid
Song:Wake The Dead
Album:Wake The Dead
Tabber:HungThySlipknot/Chris Mican
Tuning:GDAC#

G |----------------------------------------------------------------------|
D |----------------------------------------------------------------------|
A |4-4------4-4------2-2------4-4----------------------0-0000000000------|
C#|---0---0----00-00----0---0----00-00-5-5555555555555-------------4540--|x2

G|------------------------|
D|------------------------|
A|------------------------|
C|----0----0----0---------|

    "This is our city of the dead"
G|---------------------------------------------|
D|---------------------------------------------|
A|4444444444----------0000000000------7-7-7-7--|
C|----------5555555555----------00000x---------|

G|---------------------------------------------|
D|---------------------------------------------|
A|4444444444----------0000000000---------------|
C|----------5555555555----------00000x3-3-5-5--|

G|------------------------------------------|
D|------------------------------------------|
A|4444444444----------0000000000------------|
C|----------5555555555----------3333355555--|

G|---------------------------------------|
D|---------------------------------------|
A|444--444------------0000000000---------|
C|----------5555555555----------3333355--|

G|----------------------------------------|
D|----------------------------------------|
A|00000000000000000000000000000006666666--|
C|----------------------------------------|
[ Tab from: http://www.guitartabs.cc/tabs/c/comeback_kid/wake_the_dead_btab.html ]
          "You said,you said.you said"
G|----------------------------------------------------------------------|
D|----------------------------------------------------------------------|
A|4-4------4-4------2-2------4-4----------------------0-0000000000------|
C|---0---0----00-00----0---0----00-00-5-5555555555555-------------4540--|

G|---------------------------------------------------------------------|
D|---------------------------------------------------------------------|
A|4-4------4-4------2-2------4-4----------------------0-0000000000000--|
C|---0---0----00-00----0---0----00-00-5-5555555555555------------------|

G|-------------------------------------------------------------------------|
D|-------------------------------------------------------------------------|
A|-------------000000000000444444444444222222222222------------000000000000|
C|-555555555555------------------------------------555555555555------------|

  "Stop living under the weight"
G|--------------------------------|
D|--------------------------------|
A|4---0~---------------4---0------|
C|--0--------------------0---0----|

G|-----------------------------------------------|
D|-----------------------------------------------|
A|4---0~---------------4---0---------------------|
C|--0--------------------0---0-00--00-00--00-00--|x3

G|----------------------------------------------------------------------|
D|----------------------------------------------------------------------|
A|4---0000000000000000444444444444444444444444444444446666666666666666--|
C|--0-------------------------------------------------------------------|

       "We said.we said,we said"
G|------------------------------------------------------|
D|------------------------------------------------------|
A|44444444444444444444444444-------------0000000000000--|
C|--------------------------5555555555555---------------|x4

G|-----|
D|-----|
A|--4--|
C|-----|                               -Christian J. MIcan
Comments