Combuster - Summer Girl Chords & Tabs

 

Summer Girl Chords & Tabs

Combuster Chords & Tabs

Version: 2 Type: Bass Tab 0 ratings
1 star 2 stars 3 stars 4 stars 5 stars
comments

Summer Girl Bass Tab

Song: Summer Girl
Band: Combuster
Bassist: Nate Dawg

This is an awesome song.  Everybody likes this one.  I like to pick this one because it needs a strong and 
tone.

Intro:
G:------------------------------------------------------------------|
D:--777-------------------------------------------------------------|
A:-----777----------------------------------------555-4--0r---555-7-|
E:---------777-555-4444--222-444-555-7777777-0r---------------------|
[ Tab from: http://www.guitartabs.cc/tabs/c/combuster/summer_girl_btab_ver_2.html ]
Verse:
G:--------------------------------------------------------------------|
D:--------------------------------------------------------------------|
A:--0000000000000000------------------5555555555555555-77777777-------|      x2
E:-------------------2222222222222222---------------------------------|

Right after the second time of doing the verse, do this:
G:--------------------|
D:-------7h9-9/11-9/7-|
A:--7h9---------------|
E:--------------------|

Chorus:
G:----9-767--9-767--9-767-777-666-44------|
D:--7------6------4-----------------------|
A:----------------------------------------|     x2
E:----------------------------------------|

After the 1st Chorus, do this:
G:---------------------------|
D:---------------------------|
A:-------555-4----0r---555-7-|
E:--0r-----------------------|

Outro:
G:-------------------------|
D:--777--------------------|
A:------777-555-444-2222-0-|
E:-------------------------|

The song goes:

Intro
Verse(x2)
Chorus(x2)
Verse(x2)
Chorus(x2)
Intro
Chorus(x4)
Outro
Comments