Colorfinger - 13 Years Chords & Tabs

 

13 Years Chords & Tabs

Colorfinger Chords & Tabs

Version: 1 Type: Bass Tab 0 ratings
1 star 2 stars 3 stars 4 stars 5 stars
comments

13 Years Bass Tab

-------------------------
-------------------------
-------------------------
-0-0-0-0-0-0-222-2------- X2

-------------------------------------
-------------------------------------
-------------------------------------
-0-0-0-0-0-0-0-0-2-2-2-2-5-5-5-5-----
I woke up sweating in the sun
sprawled across my big brothers
grave; Vickie my mom and me-to clean the dirt
from the plaque that says his name

-------------------------
-------------------------
-------------------------
-0-0-0-0-0-0-0-0-2/4\2-3-
repeat everything above then:

-------------------------------------
-------------------------------------
-------------------------------------
-4-4-4444--2-0-0-0--5-5-5-3-7--------
go!
ever since my brother OD'ed ive drifted 
all over from town to town to town
every place i go its always the same
i keep doing junk i keep going down

-------------------------------------
-------------------------------------
-------------------------------------
-5-5-444-2-0-0-0-0-------------------
[ Tab from: http://www.guitartabs.cc/tabs/c/colorfinger/13_years_btab.html ]
yeah my momas got religeon my sisters
gave up i just gave up to
i just died inside your gonna die like george

-------------------------------------
-------------------------------------
-------------------------------------
-5-5-5-5-5-5-5-5-5-5-5-5-5-5---------

everybody says theres things to see 
everybodys pointing their finger at me

-------------------------------------
-------------------------------------
-------------------------------------
-0-0-0-0-0-0-0-0-0-0-0-0-0-0---------

------------------------------------
------------------------------------
------------------------------------
-0-0-0-0-0-2-2-2-2-2-5-5-5-5-5------
i woke up driving after another 
blackout from another bad drug
yeah i cant shake this hell that ive
made for myself and every other life i touch
see my sisters son walk the line i walked
hes only 16, he dont learn from my mistake
hes gonna waste away, hes gonna die like me

--------------------------------------
--------------------------------------
--------------------------------------
-0-0-2/4\3/8-8-8----------------------
die like me
Comments