Collin Lamkey - What Have You Chords & Tabs

 

What Have You Chords & Tabs

Collin Lamkey Chords & Tabs

Version: 1 Type: Tab 0 ratings
1 star 2 stars 3 stars 4 stars 5 stars
comments

What Have You Tab

#----------------------------------PLEASE NOTE--------------------------------#
#This file is the author's own work and represents their interpretation of the#
#song. You may only use this file for private study, scholarship, or research.#
#-----------------------------------------------------------------------------#
#-- File created with Instab - http://www.pconline.com/~smcarey/instab.html --#
#-----------------------------------------------------------------------------#

Author/Artist: Collin Lamkey
Title: What have you
Album: Zoom
Transcribed by: Collin Lamkey
Email: sept2005@home.com

Riff 1 x 3
Riff 2 x 4
Riff 3 x As long as words are there
Riff 2 x 4
Riff 3 x as long as words are there
Riff 3 x  2
Solo x as long as you feel like
Riff 3 x as long as words are there
Riff 1 x 3

-|-----------------------------|----------------------------------------------|
-|-----------------------------|----------------------------------------------|
-|-----7-----------------------|----------------------------------------------|
-|---7---7-----7-------5----5--|----------------------------------------------|
-|-5---------7---7---5---55---5|----------------------------------------------|
-|---------5-------3-----------|----------------------------------------------|
 Intro/outro Riff 1
[ Tab from: http://www.guitartabs.cc/tabs/c/collin_lamkey/what_have_you_tab.html ]
-|xxxxxxxx-xxxxxxxx|----------------------------------------------------------|
-|55555555-33333333|----------------------------------------------------------|
-|66666666-44444444|----------------------------------------------------------|
-|77777777-55555555|----------------------------------------------------------|
-|77777777-55555555|----------------------------------------------------------|
-|55555555-33333333|----------------------------------------------------------|
 Chorus Riff 2

-|----------|-------|-------|-------|-----------------------------------------|
-|----------|-------|-------|-------|-----------------------------------------|
-|----------|-------|-------|-------|-----------------------------------------|
-|----------|-------|-------|-------|-----------------------------------------|
-|0-35/7/53-|0-5-0-7|0-5-0-7|0-5-0-7|-----------------------------------------|
-|----------|-------|-------|-------|-----------------------------------------|
 Verse Riff 3

-|------------------------------------|---------------------------------------|
-|----10-12---------------------------|---------------------------------------|
-|/13-------10-12b14-10p12----12-10---|---------------------------------------|
-|-------------------------12-------12|---------------------------------------|
-|------------------------------------|---------------------------------------|
-|------------------------------------|---------------------------------------|
 Solo

-|----------------------------------------------------------------------------|
-|----------------------------------------1212-10-----------------------------|
-|-----------10-----------10-12-----------1212-10-----------------------------|
-|-----10-12--------10-12-----------10-12-------------------------------------|
-|-/12----------/12-------------/12-------------------------------------------|
-|----------------------------------------------------------------------------|
 Solo
Comments