Collective Soul - You Speak My Language Chords & Tabs

 

You Speak My Language Chords & Tabs

Collective Soul Chords & Tabs

Version: 1 Type: Tab 0 ratings
1 star 2 stars 3 stars 4 stars 5 stars
comments

You Speak My Language Tab

   
You Speak My Language- Collective Soul
CD: Blender
Tabber: Mitchell (Mitchell_J@hotmail.com)
Tuning: Dropped D (DADGBe)
PM= palm mute   h= hammer on   p=pull off   /=slide

Intro:
e ------------------------------------------|----8-----8-10-----8-----8-10-
B --------(Guitar1)-------------------------|------------------------------
G -----PM------PM------------PM------PM-----|-7-----7--------7-----7-------
D -x-x-0-0-----0-0-0-----x-x-0-0-----0-0-0--|------------------------------
A -x-x-0-0-----0-0-0-----x-x-0-0-----0-0-0--|----(Guitar2)-----------------
D -x-x-0-0-----0-0-0-----x-x-0-0-----0-0-0--|------------------------------

Verse 1 has no guitar. After the verse though, the intro plays.
[ Tab from: http://www.guitartabs.cc/tabs/c/collective_soul/you_speak_my_language_tab.html ]
Chorus: "Yeah you................... you speak my language!!"
e --------------------------------------------------------------------------
B --------------------------------------------------------------------------
G -PM-----------------------------7/5---------------------7/5---------------
D -3-3-3-3-3-3-3-3-3-3-3-3-3-3-3--7/5-3-3h5-5-5p3-0---x-x-7/5-3-3h5-5-5p3-0-
A -3-3-3-3-3-3-3-3-3-3-3-3-3-3-3--5/3-3-3h5-5-5p3-0---x-x-5/3-3-3h5-5-5p3-0-
D -3-3-3-3-3-3-3-3-3-3-3-3-3-3-3------3-3h5-5-5p3-0---x-x-----3-3h5-5-5p3-0-

Chorus ending:
e --------------------------------------
B --------------------------------------
G --------------------------------------
D -3--3h5-5-5-5-3---3-3h5-5-5-5-3-0--0--
A -3--3h5-5-5-5-3---3-3h5-5-5-5-3-0--0--
D -3--3h5-5-5-5-3---3-3h5-5-5-5-3-0--0--

Verse 2 plays (Guitar1) from the intro.

Intrumental Break with wah pedal: I don't know how many strokes there are
but those are the right notes to play.
e --------------------15----
B -----9----15---15---------
G -7------------------------
D --------------------------
A --------------------------
D --------------------------

Chords: D5: 000xxx   F5: 333xxx   G5: 555xxx   C5: x355xx   D5(2): x577xx

Tab originally from: http://diehardtabs.tripod.com
Comments