Collective Soul - Where The River Flows Chords & Tabs

 

Where The River Flows Chords & Tabs

Collective Soul Chords & Tabs

Version: 4 Type: Tab 0 ratings
1 star 2 stars 3 stars 4 stars 5 stars
comments

Where The River Flows Tab

   
Sounds as close as possible

p = pull off

- Standard Tuning -

- Intro / Main riff: -
w/ crunch or destortion:

E|-------------------------|
B|-------------------------|
G|-------------------------|
D|-------------------------|
A|--3--3-5-3-6--3-5-3-6----|
E|--3--3-5-3-6--3-5-3-6----|

Tabbed By H4CK3R-CR4CK3R Im Also Known As J4M32

- Verse 1: -

E|-----------|
B|-----------|
G|-----------|
D|-----------|
A|--5-5-5-5--|
E|--3-3-3-3--|
repeat a few times!

- Fill: -

E|------------|
B|------------|
G|------------|
D|------------|
A|--5--3-6-6--|
E|--5--3-6-6--|

- Verse 2: -

E|-----------|
B|-----------|
G|-----------|
D|-----------|
A|--3-3-3-3--|
E|--1-1-1-1--|

- Verse 3: -
[ Tab from: http://www.guitartabs.cc/tabs/c/collective_soul/where_the_river_flows_tab_ver_4.html ]
E|-------------------||
B|-------------------||
G|-------------------||0 (Repeat Once)
D|-------------------||0
A|--5-5-5-5-3-3-3-3--||
E|--3-3-3-3-1-1-1-1--||
these chords are played repetatively i cant
count all of them!

Solo:

E|-----------------------------|
B|-----------------------------|
G|-----------------------------|
D|-------------------------5---|
A|-5p3-3-33-33-5-3-6-3-5-3---3-|
E|-----------------------------|
Play 4 - 5 times
Then Move up a string (a + D Become D + G)
Play this twice
back down to A + D play this again twice

- Verse 4: -
Same as Verse 2


Play:
Intro / Main
Verse 1
Fill
Main
Verse 2
Fill
Main
Verse 3
Solo
Fill
Main
Verse 4

Tabbed By H4CK3R-CR4CK3R Im Also Known As J4M32
Comments