Collective Soul - Where The River Flows Chords & Tabs

 

Where The River Flows Chords & Tabs

Collective Soul Chords & Tabs

Version: 1 Type: Tab 1 rating
1 star 2 stars 3 stars 4 stars 5 stars
comments

Where The River Flows Tab

#----------------------------------PLEASE NOTE---------------------------------#
#This file is the author's own work and represents their interpretation of the #
#song. You may only use this file for private study, scholarship, or research. #
#------------------------------------------------------------------------------##
#

#----------------------------------PLEASE NOTE---------------------------------#
#This file is the author's own work and represents their interpretation of the #
#song. You may only use this file for private study, scholarship, or research. #
#------------------------------------------------------------------------------#


From: JESTER969@aol.com
Date: Sun, 10 Mar 1996 08:39:35 -0500
Subject: TAB: "Where The River Flows" solo by COLLECTIVE SOUL



  Correction on "Where The River Flows"
  solo by COLLECTIVE SOUL
         Play  5 times
e:-------------------------------------------|
B:-------------------------------------------|
G:-------------------------------------------|
D:--H------------------H-----H-----H---5-----|
A:5--3--3-3-3-3-3-3--5--3--6--3--5--3-----3--|
E:-------------------------------------------|



[ Tab from: http://www.guitartabs.cc/tabs/c/collective_soul/where_the_river_flows_tab.html ]
       Play twice
e:-----------------------------------------------------------------------=
----|
B:-----------------------------------------------------------------------=
----|
G:----H-------------------H-----H-----H---5------------------------------=
----|
D:--5--3---3-3-3-3-3-5--3--6--5--3--5--3-----3---------------------------=
----|
A:-----------------------------------------------------------------------=
----|
E:-----------------------------------------------------------------------=
----|

      I think this sounds a little closer to the solo.  Please send COMME=
NTS




e:----------------------|
B:----------------------|
G:----------------------|
D:----------------------|
A:----------------------|
E:----------------------|
  to: JESTER969@AOL.COM



Date: Wed, 11 Dec 1996 19:04:49 -0800
From: Denis Fitzpatrick 
Subject: TAB:where the river flows-collective soul

Where the River Flows-Collective Soul
CD-Collective Soul
Written by-Collective Soul

I have only been playing guitar for 2 months but
I think this sounds pretty good.
There is another tab I saw that was pobably done by
some one good because they tabbed more of the song.
THIS IS NOT THE ACTUAL WAY TO PLAY IT (I don't think)

|----------------------------------------------|
|----------------------------------------------|
|----------------------------------------------|
|----------------------------------------------|
|3-----3---5---3---6-----3---5---3---6----6---3|
|3-----3---5---3---6-----3---5---3---6----6---3|

Neil Fitzpatrick
Comments, Corrections, etc.
fitzpatr@mb.sympatico.ca

Comments