Collective Soul - Vent Chords & Tabs

 

Vent Chords & Tabs

Collective Soul Chords & Tabs

Version: 1 Type: Tab 0 ratings
1 star 2 stars 3 stars 4 stars 5 stars
comments

Vent Tab

   
Collective Soul, Vent.
Tabbed by redmud, redmud@hotmail.com.
  
Vent
BY: COLLECTIVE SOUL
Tabbed by: redmud
-------------------------------------------------------------------------------------------------------------------------------------------------------

I love you cause you're such a prick
E-----------------------------------------------------------------------------------------------------
B----------------------------------------------------------------------------------------------------
G---------------------------------------------------------------------------------------------------
D---------------------------------------------------------------------------------------------------
A---2---------2-------------2-----------2-------------------------------------------------------
E--------4--------4--4-----------4----------4---4---and so on-------------------------------
(follow with this awesome thing:)
[ Tab from: http://www.guitartabs.cc/tabs/c/collective_soul/vent_tab.html ]
E--------------------------------------------------------------------------------------------------
B--------------------------------------------------------------------------------------------------
G-------------------------------------------------------------------------------------------------
D-------------4----6-------------------------4---6-------------------------------------------
A----4--6--------------------------4----6-----------------------------------------------------
E------------------------4--4--4----------------------4--4---4------------------------------
(as you know, play this throughout the song)
Verse:

Shut your mouth


Like mama said
Don't flatter me 

With selfishness
B                          C#m (46644)
Do you feel your tongue quivering
B                       C#m(446644)
It's moments like these I revel in

You're conversation(some words)

Cause no truth in you exists

Yeah you bite before you lick

I love you cause you're such a prick

Verse

please visit my website at http://go.to/absoluteguitar 

:: Ultimate Guitar Archive :: 
http://www.ultimate-guitar.com
Comments