Collective Soul - The World I Know Chords & Tabs

 

The World I Know Chords & Tabs

Collective Soul Chords & Tabs

Version: 3 Type: Tab 0 ratings
1 star 2 stars 3 stars 4 stars 5 stars
comments

The World I Know Tab

   
Tabbed By GiggityGiggity
Tuning is Standard - EADGBe

Chords

   A       G      C       D

e -0-     -3-    -0-     -2-|
B -2-     -0-    -1-     -3-|
G -2-     -0-    -0-     -2-|
D -2-     -0-    -2-     -0-|
A -0-     -2-    -3-     -x-|
E -x-     -3-    -0-     -x-|


Verse (1)


e---x-x-x-x-x-x-x-x-x-x-x-x-x-|
B---x-x-x-x-x-x-x-x-x-x-x-x-x-|
G---7-7-7-7-7-2-2-2-4-4-4-4-6-|
D---0-0-0-0-0-0-0-0-0-0-0-0-0-|
A---0-0-0-0-0-0-0-0-0-0-0-0-0-|
E---7-7-7-7-7-2-2-2-3-3-3-3-5-|


Has your conscience shown
Has the sweet breeze blown
Has all kindness gone
Hope still lingers on


A-------------------------------------------------------------
I drink myself in newfound pity sitting along in New York City

G-------------------
and I don't know why

Verse (2)


(Play Through Entire Verse)

e---x-x-x-x-x-x-x-x-x-x-x-x-x-x-x-x-|
B---x-x-x-x-x-x-x-x-x-x-x-x-x-x-x-x-|
G---7-7-7-7-7-2-2-2-4-4-4-4-4-4-4-6-|
D---0-0-0-0-0-0-0-0-0-0-0-0-0-0-0-0-|
A---x-x-x-x-x-x-x-x-x-x-x-x-x-x-x-x-|
E---7-7-7-7-7-2-2-2-3-3-3-3-5-5-5-7-|


Are we listening
The hymns are offering
Have we eyes to see
Love is gathering


PreChorus
[ Tab from: http://www.guitartabs.cc/tabs/c/collective_soul/the_world_i_know_tab_ver_3.html ]
A-----------------------------------------------------------------
All the works that I've been reading have now started the act of bleeding

G------------------
Into one (into one)


Chorus

D---------------------A---------------------G-----------------------D
   So I walk up on high and I step to the edge to see my world below


e-2-2-3-2-2-2-0-2-|
B-3-3-3-3-3-3-3-3-|
G-2-2-2-2-2-2-2-2-|
D-0-0-0-0-0-0-0-0-|
A-0-0-0-0-0-0-0-0-|
e-0-0-0-0-0-0-0-0-|

D---------------------A---------------------C--------------------------
And I laugh at myself as the tears roll down Cause its the world I know

G-------------------
Its the World I know

Interlude

e---0h2p0-----0-----0-----5-----7-----7-----7-----|
B----------0-----0-----0-----0-----0-----0-----0--|
G-------------------------------------------------|
D-------------------------------------------------|
A-------------------------------------------------|
E-------------------------------------------------|

Outro

e-----------------------|
B-----------------------|
G--2-2-2-2--4-4-4-4---4-|
D--0-0-0-0--0-0-0-0---0-| x4
A--x-x-x-x--x-x-x-x---x-|
E--2-2-2-2--3-3-3-3---5-|


Song Ends On  (G) -3
                  -2
                  -0
                  -0
                  -0
                  -3

verse
prechorus
verse
prechorus
chorus
interlude
prechorus
chorus
outro
ending chord
Comments