Collective Soul - The World I Know Chords & Tabs

 

The World I Know Chords & Tabs

Collective Soul Chords & Tabs

Version: 1 Type: Bass Tab 0 ratings
1 star 2 stars 3 stars 4 stars 5 stars
comments

The World I Know Bass Tab

   
The World I Know-Collective Soul
Tabbed by Yerp
rhergott@bserv.com email me with any comments or questions.
Tuning: E A D G 

h= hammer on

Intro: Wait a few beats and come in with:
G|----------|
D|-5-4-2----|
A|--------5-|
E|----------|

Riff 1 (main riff)
G|--------------------------------|
D|------0h2-0-0-------------------|
A|-22-2---------------------0-0h2-|
E|---------------2h33-33-33-------|

Pre-Chorus:
G|-----------------------------------|
D|-----------------------------------|
A|-----------------------------------|
E|-5555555555555555-3333333333333333-|
[ Tab from: http://www.guitartabs.cc/tabs/c/collective_soul/the_world_i_know_btab.html ]
Then play Riff 1 for a bit.
Then:
Riff 2 (pre-chorus)
G|-----------------------------------------|
D|------------------------------0-55-0-4-2-|
A|-----------------------------------------|
E|-5555555555555555-33333333333------------|

Riff 3 (chorus)
G|---------------------------------------->
D|---------------------------------------->
A|-55555555-------------------55555555---->
E|----------55555555-33333333------------->

Continued:
G|-------------------------------------------|
D|-------------------------------------------|
A|-55555555-000000-2-33333333-----55-7-5-----|
E|----------------------------333--------7-5-|

Then you play Riff 1 a bunch, then Riff 2, 

And then play the chorus twice. 

Wrap up the song with a variation of Riff 1:

Outro:
G|-----------------------|
D|-00-00-----------------|
A|-------0-------------0-|
E|---------2222-2h3333---|

Play that a few times and the last time skip the hammer on and just play the G.


Comments