Collective Soul - Shine Chords & Tabs

 

Shine Chords & Tabs

Collective Soul Chords & Tabs

Version: 4 Type: Tab 0 ratings
1 star 2 stars 3 stars 4 stars 5 stars
comments

Shine Tab

   
-------------------------------------------------------------------------------
			     SHINE - Collective Soul
-------------------------------------------------------------------------------

By:Lachrymal

Tuned to Dropped Db

Verse:
    give me a word,    give me a sign...
eb|--------------------------------------------|
Bb|--------------------------------------------|
Gb|-9h11-11-11-9-9-7-7-9h11-11-11-14-14-7-9-11-|
Db|-0-----0--0-0-0-0-0-0-----0--0--0--0-0-0--0-|
Ab|-0-----0--0-0-0-0-0-0-----0--0--0--0-0-0--0-|
Db|-0-----0--0-0-0-0-0-0-----0--0--0--0-0-0--0-|
[ Tab from: http://www.guitartabs.cc/tabs/c/collective_soul/shine_tab_ver_4.html ]
eb|--------------------------------------------|
Bb|--------------------------------------------|
Gb|-5-xx-5-x-5-5-5-5555-7-xx-7-x-7-7-7-7777----|
Db|-5-xx-5-x-5-5-5-5555-7-xx-7-x-7-7-7-7777----|
Ab|-3-xx-3-x-3-3-3-3333-5-xx-5-x-5-5-5-5555----|
Db|--------------------------------------------|

PreChorus:
                       yeah...                   yeah...
eb|------------------------|------------------------|
Bb|------------------------|------------------------|
Gb|------------------------|------------------------|
Db|-0-00-3p0-0-3p0-0-3h5---|-0-00-3p0-0-3p0-0-3h5-6-|
Ab|-0-00-3p0-0-3p0-0-3h5---|-0-00-3p0-0-3p0-0-3h5-6-|
Db|-0-00-3p0-0-3p0-0-3h5---|-0-00-3p0-0-3p0-0-3h5-6-|

Chorus:
    whoah!!!    heaven let you're light shine down...
eb|-------------------------|
Bb|-------------------------|
Gb|-------------------------|
Db|-5555-5-555555-000000000-|
Ab|-3333-3-555555-000000000-|
Db|--------555555-000000000-|
Comments