Collective Soul - Shine Chords & Tabs

 

Shine Chords & Tabs

Collective Soul Chords & Tabs

Version: 1 Type: Tab 5 ratings
1 star 2 stars 3 stars 4 stars 5 stars
comments

Shine Tab

Collective Soul
Shine...


~~introduction~~  mild distortion

E|----------------------------------|------------------------------------|--
B|----------------------------------|------------------------------------|--
G|-9h11--11----9----7h9--7----------|-9h11--11---14---7-9-9-----5h7--5h7-|--
D|-0----0-0-0--0-0-0--0-0-0-0---0-0-|-0----0-0-0---0--0-0-0-0-0-0-0-0-0--|--
A|----------------------------------|------------------------------------|--
E|----------------------------------|------------------------------------|--



~~Heavy Kick Ass part~~ (what else do u call it, lol)

-|-------------------------
-|-------------------------
-|-------------------------
-|-2--2--2-2-2-------------
-|-2--2--2-2-2------------
-|-0--0--3-0-3----------- You get the idea



~~~~**The chorus**~~~~

(I've seen this played a bunch of ways, this one is right)
-/----------------------
-/----------------------
-/----4-4--------6------
-/----4-4--4-4---6------
-/----2-2--4-4---4------
-/---------2-2----------(this obviously does not show rythem, get mp3 or cd and listen to it, it's easy)
[ Tab from: http://www.guitartabs.cc/tabs/c/collective_soul/shine_tab.html ]
here's the solo~
 
-|-----------------------|-----------------------|-----------------------|--
-|-------10----10--------|-10---10---------10----|-12-10---12-10---12-10-|--
-|-------10----10--------|-10---10---------10----|-12-10---12-10---12-10-|--
-|-10-12----12-----10-12-|----12-----10-12----12-|-------12------12------|--
-|-----------------------|-----------------------|-----------------------|--
-|-----------------------|-----------------------|-----------------------|--
                 
-|-----------------------|------------------------------------------------|--
-|----12--10-------------|------------------------------------------------|--
-|-12-12--10----10-------|---------------------------------------10-------|--
-|-12--------12----------|-----------------------10--10h12-10h12----12----|--
-|-------------------12\-|-------10--10h12p10h12---12---------------------|--
-|-----------------------|--10h13--12-------------------------------------|--
							   ..................
-|---------------------------10------13p10h13h15p10h13--13-bfull----------13-
-|------------10--10h13-10h13--13-10-------------------(13)bf----------------
-|-10h12-10h12--12-----------------------------------------------------------
-|---------------------------------------------------------------------------
-|---------------------------------------------------------------------------
-|---------------------------------------------------------------------------
....Ü
-|-13--(13)---10-----10\------------------------13---------15bf(15)---------|-
-|---------------13--------------------13---15------15-13------------13--15-|-
-|-------------------------13---13-13---------------------------------------|-
-|--------------------------x-----------------------------------------------|-
-|--------------------------------------------------------------------------|-
-|--------------------------------------------------------------------------|-

-|-13-------------15bf(15)-------|--------------15fb(15)------|--------------
-|-----15-13-15------------13-15-|-15-13-15-15----------13-15-|--------------
-|-------------------------------|----------------------------|--------------
-|-------------------------------|----------------------------|--------------
-|-------------------------------|----------------------------|--------------
-|-------------------------------|----------------------------|--------------

-|--------------16p13-15p-15----13-------|------------------------------------
-|--15-13-15-13--------------15----15p13-|-14p13----13------------------------
-|---------------------------------------|-------14----14-12-14p13\10h12p10---
-|---------------------------------------|------------------------------------
-|---------------------------------------|------------------------------------
-|---------------------------------------|------------------------------------
                  
-------------------|----------------------|---------------------------------|-
-------------------|----13----------------|---------------10----------------|-
--------------12bf-|-------1212fb(12)--10-|---------------10----------------|-
---12-x-12-10------|----------------------|---12---12--12-----10---12-------|-
-------------------|----------------------|---------------------------------|-
-------------------|----------------------|---------------------------------|-

-|-----------------------------|
-|--12b¬------------10---------|
-|--12b¬--10--------10---------|
-|------------12-12-----12--10-|
-|-----------------------------|
-|-----------------------------|



that is pretty much the whole song, and you can also use the D,A,G chords
on the chorus if you want, but the one i posted is the correct one off
the cd and the one they play live. peace out

-joshua
Comments