Collective Soul - Sattelite Chords & Tabs

 

Sattelite Chords & Tabs

Collective Soul Chords & Tabs

Version: 1 Type: Tab

Sattelite Tab

-------------------------------------------------------------------------------
			   Sattelite - Collective Soul
-------------------------------------------------------------------------------
Tabbed by: Ben Johnson
Email: sarnianleaffan@hotmail.com

To all Collective Soul fans out there i promise I'll tab this full song one day...
I just found out the intro and could'nt resist posting it! :)
 
Tuning:Standard

Intro & Verse
[ Tab from: http://www.guitartabs.cc/tabs/c/collective_soul/sattelite_tab.html ]
e|--------3---------------------------|
B|----3-----3---3---------------------|
G|--0---0-----0-----------------------|
D|------------------------------------|  X4
A|------------------------------------|
E|0-----------------------------------|

e|--------3---------------------------|
B|----3-----3---3---------------------|
G|--0---0-----0-----------------------|
D|------------------------------------|
A|------------------------------------|
E|3-----------------------------------|

That's all i got so far...this songs a bitch to tab I'll be back soon when it's finished.