Collective Soul - No More No Less Chords & Tabs

 

No More No Less Chords & Tabs

Collective Soul Chords & Tabs

Version: 3 Type: Bass Tab 0 ratings
1 star 2 stars 3 stars 4 stars 5 stars
comments

No More No Less Bass Tab

Elliott Metherd


Standard Tuning
Intro,Post-Chorus,and Final Outro:
G---------------------------------------------------------------------------|
D-------------88-----8-10--------------88-----8-10--------------88-----8-10-|
A---------10------10---------------10------10---------------10------10------|
E--8--88--------------------8--88--------------------8--88------------------|

G--------------------------|
D--------------88-----8-10-|
A----------10------10------|
E---8--88------------------|

Verse:Repeat 2.5x
G-----------------------------------------------------------------|
D-----10---------7----------------------10---------7--------------|
A--8------8---10------------8-10-----8------8---10------------7-8-|
E--------------------8-8-8-----------------------------8-8-8------|
[ Tab from: http://www.guitartabs.cc/tabs/c/collective_soul/no_more_no_less_btab_ver_3.html ]
Pre-Chorus:
G-----------------------------------------------------------------------------|
D-----10---------7----10-------------10------7-777-7-7------------------------|
A--8------8---10----------10-----10------10--------------8-888-8--5-----------|
E-----------------------------8-----------------------8---------------5-555-5-|

G----------------|
D----------------|
A-----8--8-7--10-|
E--8-------------|

Chorus:
G---------------------------------------------------10-----------------------|
D-10------10----------8--------------10----------10-----10-------------------|
A-----10-----10---10-----10------8-8----8------8-----------8-10--------------|
E---------------8-----------8-11----------8-11-------------------------------|

Solo:Repeat 2x
G-------------------------------------------------------------------|
D-----------------------------------10-----------Then after 10th----|
A--8------10-------------8------10---------10----fret D, Start Pre--|
E-------------8------10------------------------8--------------------|Chorus
Outro Beginning:
E:-8-----------8-----------8-----------8

Order: Intro, Verse, Pre-Chorus, Chorus, Post-Chorus
Verse, Pre-Chorus, Chorus, Post-Chorus, Solo, Pre-Chorus, Chorus, Outro
Comments