Collective Soul - Needs Chords & Tabs

 

Needs Chords & Tabs

Collective Soul Chords & Tabs

Version: 1 Type: Tab 0 ratings
1 star 2 stars 3 stars 4 stars 5 stars
comments

Needs Tab

   
Tab by: Greg Whigham
email: gregwhigham@hotmail.com
song: Needs by Collective Soul
"I would like to dedicate this tab to my financee Rene"


(standard Tunning)
  G              Csus2             G/B           Csus2
E--------3-------------3-------------3-------------------
B----------3-------------3--------------3----------3-----
G----0-------------0------------0--------------0------0--
D--------------------------------------------------------
A--------------3-------------2--------------3------------
E-3------------------------------------------------------

(Main Riff in Verse 1)
All around me i see what weakness has made
Too much tommorow i think I'll take all today
Am I a poison, am I a thorn in the side
am I a picture perfect subject tonight

(Palm mute)
G
I don't need nobody
G/B                        Csus2
I don't need the weight of words
                          G/B
to find a way to crash on thru
(change strum)
G
i don't need nobody
G/B                       Csus2
i just need to learn the depth

or doubt of faith to fall into

G  Csus2  G/B  Csus2 (2x)
[ Tab from: http://www.guitartabs.cc/tabs/c/collective_soul/needs_tab.html ]
G       Csus2     G/B        Csus2
Here I slumber to awaken my daze
I find convenience in the savior I save
Am I a prison, am i a source of dire news
Am I a picture perfect reason for you

I don't need nobody
I don't need the weight of words
to crash on thru
i don't need nobody
i just need to learn the depth
or doubt of faith to fall into

Csus2             G
In this time of substitute
Csus2                      G                     Csus2   G
It's my needs I've answered to (all the while)
Csus2               G
And the hope that i invest
Csus2                     G
still turns to signals of distress (all the while)

(Play main riff)
(go to chorus with palm mute)
(orchestra solo)

G/B   Csus2  G      your all i need
G/B   Csus2  G      when the water Im in deep
G/B   Csus2  G      your all i need
G/B   Csus2  G      now i cry my soul to sleep
repeat and fade     your all i need

Chords
   G               Csus2       G/B
E---3-----    E----3-----  E------3---
B---3------   B----3-----  B------3---
G---------    G---------   G----------
D---------    D---------   D----------
A---------    A----3-----  A--2-------
E---3------   E---------   E----------


Comments