Collective Soul - Heaven's Already Here Chords & Tabs

 

Heaven's Already Here Chords & Tabs

Collective Soul Chords & Tabs

Version: 1 Type: Tab 1 rating
1 star 2 stars 3 stars 4 stars 5 stars
comments

Heaven's Already Here Tab

   
Artist: Collective Soul
Song: Heaven’s Already Here
Album: Hints, Allegations, & Things Left Unsaid (#6)

|----3-------3------3------3-3------------------------------------------|
|----3-------3------3------3-3------------------------------------------|
|--------------------------0-0------------------------------------------|      4x
|----------------------0h2----------------------------------------------|
|--2----0h2---2h3-------------------------------------------------------|
|--3--------------------------------------------------------------------|

STRUM:
   G    C  Am D   C   G
|--3---3---0---2---0---3------------------------------------------------|
|--3---3---1---3---1---3------------------------------------------------|
|--0---0---2---2---0---0------------------------------------------------|
|--0---2---2---0---2---0------------------------------------------------|
|--2---3---0-------3---2------------------------------------------------|
|--3-------------------3------------------------------------------------|
  Wake up to a new morning…
[ Tab from: http://www.guitartabs.cc/tabs/c/collective_soul/heavens_already_here_tab.html ]
Chorus:
|---2-------------------0---------------3-------------------------------|
|---3-------------------1---------------3-------------------------------|
|---2-------------------0---------------0-------------------------------|
|---0-------------------2---------------0-------------------------------|
|-----------------------3---------------2-------------------------------|
|---------------------------------------3-------------------------------|
  Who can bring me heaven?...

Outro:
|----3-------3------3------3-3------------------3-3-3-------------------|
|----3-------3------3------3-3------------------3-3-3-------------------|
|--------------------------0-0------------------0-0-0—Ends song---------|      4x
|----------------------0h2--------------------------0-------------------|
|--2----0h2---2h3-----------------------------------2-------------------|
|--3------------------------------------------------3-------------------|

Just listen to the song, it’s pretty easy to get the timing and things down…
I will soon have the steel guitar sounding fills and whatnot in here, this tab is by memory…later.
Cullin...
Comments