Collective Soul - Gel Chords & Tabs

 

Gel Chords & Tabs

Collective Soul Chords & Tabs

Version: 1 Type: Bass Tab 0 ratings
1 star 2 stars 3 stars 4 stars 5 stars
comments

Gel Bass Tab

   
Gel-Collective Soul
Tabbed by Yerp
rhergott@bserv.com email me with any comment or questions.
Tuning: E A D G 

Intro: Guitar

Riff 1
G|-----------------|
D|-----------------|
A|---------7-8-7-5-|
E|-77-7-77---------|

Play a few times, then play:

Riff 2
G|-------------------|
D|-------------------|
A|-------------------|
E|-555555555-0-2-0-3-|

Play Riff 1 twice and then:
[ Tab from: http://www.guitartabs.cc/tabs/c/collective_soul/gel_btab.html ]
Riff 3
G|---------------------------------------|
D|---------------------------------------|
A|---------------------------------------|
E|-5555555555555555555555555-0-2-0-3-0-5-|

Riff 4
G|------------------------------------------|
D|------------------------------------------|
A|-----6-7-----6---6---666-----6-7----------|
E|-6-7-----6-7---7---7-----6-7-----6-7-7777-|

Repeat all of that. 

During the guitar solo play:

Riff 5
G|------------------------------------------------------------------|
D|------------------------------------------------------------------|
A|---------------------------222222222-----------222222222-----55-3-|
E|-5-3-5-3-5-3-5-0-2-0-3-0-5-----------000000000-----------000------|

Play Riff 5 1-1/2 times and then play Riff 4.

Play Riff 1 until the end.

Comments