Coldplay - Till Kingdom Comes Chords & Tabs

 

Till Kingdom Comes Chords & Tabs

Coldplay Chords & Tabs

Version: 1 Type: Tab 0 ratings
1 star 2 stars 3 stars 4 stars 5 stars
comments

Till Kingdom Comes Tab

(Coldplay)Til Kingdom Come Tab 


Artist: Coldplay(x&y)
Song: 'Til Kingdom Comes
Tab by: Justin Loosbrock

Tuning

EADGBE ( this sounds pretty much like it... unless im wrong?)


Intro

----------------|
--1-------------|
--0-------------|
--0---------x2--|
--3-------------|
--x-------------|


Begin

 Steal   my     heart     ...
------------------------------------------------------------------------------------------------------------|
---1-----3-------5---------------------5------3------1----------1--------3----5-----------5-----3-----1-----|
---0-----0-------0---------------------0------0------0----------0--------0----0-----------0-----0-----0-----|
---0-----0-------0---(hold chord)------0------0------0--(hold)--0--------0----0--(hold)---0-----0-----0-----|
---3-----5-------7---------------------7------5------3----------3--------5----7-----------7-----5-----3-----|
---x-----x-------x---------------------x------x------x----------x--------x----x-----------x-----x-----x-----|


 
---------------------------------------------------------|-------------------------------------------------|
--1-----3----5------------------------5------3------1----|-----8-----5-----8-------3------5------0-----1---|
--0-----0----0------------------------0------0------0----|-----0-----0-----0-------0------0------0-----0---|
--0-----0----0----(lots of holding)---0------0------0----|-----0-----0-----0-------0------0------0-----0---|
--3-----5----7------------------------7------5------3----|-----10----7-----10------5------7------2-----3---|
--x-----x----x------------------------x------x------x----|-----x-----x-----x-------x------x------x-----x---|

      
----------------------------------------------------------------------------------------|
--1--------------1-------------------------1----------------------1---------------------|
--0--------------2-------------2-----------0----------------------2------------2--------|
--0--------------2-------------3-----------0----------------------2------------3--------|
--3--------------0-------------3-----------3----------------------0------------3--------|
--x--------------x-------------1-----------x----------------------x------------1--------|

       
---------------------------------------------------------------------------------------------|
--1--------------1-----------------------1----------------------------------------------1----|
--0--------------2------------2----------0-----------------------2------------4---------0----|
--0--------------2------------3----------0-----------------------3------------5---------0----|
--3--------------0------------3----------3-----------------------3------------5---------3----|
--x--------------x------------1----------x-----------------------1------------3---------x----|

-----------------|-----------------------|
--1--s--3--s--5--|--5--s--3--s--1--------|
--0--s--0--s--0--|--0--s--0--s--0--------|
--0--s--0--s--0--|--0--s--0--s--0--------|
--3--s--5--s--7--|--7--s--5--s--3--------|
--x-----x-----x--|--x-----x-----x-----0--|

 
-----------------------------------------------------------------------------------------------------------|
--1-----3-------5---------------------5------3------1----------1--------3----5-----------5-----3-----1-----|
--0-----0-------0---------------------0------0------0----------0--------0----0-----------0-----0-----0-----|
--0-----0-------0---(hold chord)------0------0------0--(hold)--0--------0----0--(hold)---0-----0-----0-----|
--3-----5-------7---------------------7------5------3----------3--------5----7-----------7-----5-----3-----|
--x-----x-------x---------------------x------x------x----------x--------x----x-----------x-----x-----x-----|

  I   need someone  ...
----------------------------------------------------------|----------------------------------------------|
--1-----3----5------------------------5------3------1-----|---8-----5----8-------3--------5----0-----1---|
--0-----0----0------------------------0------0------0-----|---0-----0----0-------0--------0----0-----0---|
--0-----0----0----(lots of holding)---0------0------0-----|---0-----0----0-------0--------0----0-----0---|
--3-----5----7------------------------7------5------3-----|---10----7----10------5--------7----2-----3---|
--x-----x----x------------------------x------x------x-----|---x-----x----x-------x--------x----x-----x---|


[ Tab from: http://www.guitartabs.cc/tabs/c/coldplay/till_kingdom_comes_tab.html ]
---------------------------------------------------------------------------|
-1--------------------------------1----------------------------------1-----|
-0-----------2--------------------0----------------2-----------------0-----|
-0-----------3--------------------2----------------3-----------------2-----|
-3-----------3--------------------3----------------3-----------------3-----|
-x-----------1--------------------x----------------1-----------------x-----|


And say... 
----------------------------------------------------------------------------------|
-1-------------------------------1--------------------------------------------1---|
-0-----------2-----------2-------0---------------------2---s--4---------------0---|
-0-----------3-----------2-------0---------------------3---s--5---------------0---|
-3-----------3-------------------3---------------------3---s--5---------------3---|
-x-----------1-------------------x---------------------1---s--3---------------x---|


-----------------|-------------------------------------------------------------|
--1--s--3--s--5--|--5--s--3--s--1-------on the way back------------------------|
--0--s--0--s--0--|--0--s--0--s--0-------this is over the chords----------------|
--0--s--0--s--0--|--0--s--0--s--0----------------------------------------------|
--3--s--5--s--7--|--7--s--5--s--3----------------------------------7---5-------|
--x-----x-----x--|--x-----x-----x----------------------------------------------|

  
---------------------------------------------------------------------------------------------------------|
---1-----3-------5---------------------5------3------1----------1-----3----5-----------5-----3-----1-----|
---0-----0-------0---------------------0------0------0----------0-----0----0-----------0-----0-----0-----|
---0-----0-------0---(hold chord)------0------0------0--(hold)--0-----0----0--(hold)---0-----0-----0-----|
---3-----5-------7---------------------7------5------3----------3-----5----7-----------7-----5-----3-----|
---x-----x-------x---------------------x------x------x----------x-----x----x-----------x-----x-----x-----|

 
---------------------------------------------------------|-------------------------------------------------|
--1-----3----5------------------------5------3------1----|-----8-----5-----8-------3------5------0-----1---|
--0-----0----0------------------------0------0------0----|-----0-----0-----0-------0------0------0-----0---|
--0-----0----0----(lots of holding)---0------0------0----|-----0-----0-----0-------0------0------0-----0---|
--3-----5----7------------------------7------5------3----|-----10----7-----10------5------7------2-----3---|
--x-----x----x------------------------x------x------x----|-----x-----x-----x-------x------x------x-----x---|


------------------------------------------------------------------------------|
--1-------1-------------------------1-------------1---------1-----------------|
--0-------2-------------2-----------0-------------0---------2------------2----|
--0-------2-------------3-----------0-------------0---------2------------3----|
--3-------0-------------3-----------3-------------3---------0------------3----|
--x-------x-------------1-----------x-------------x---------x------------1----|

   
----------------------------------------------------------------------------------------------|
--1--------------1-----------------------1----------------------------------------------1-----|
--0--------------2------------2----------0-----------------------2------------4---------0-----|
--0--------------2------------3----------0-----------------------3------------5---------0-----|
--3--------------0------------3----------3-----------------------3------------5---------3-----|
--x--------------x------------1----------x-----------------------1------------3---------x-----|

For  you I'd wait ...
----------------------------------------------------------------------------|
-1--------------------------------1----------------------------------1------|
-0-----------2--------------------0----------------2-----------------0------|
-0-----------3--------------------2----------------3-----------------2------|
-3-----------3--------------------3----------------3-----------------3------|
-x-----------1--------------------x----------------1-----------------x------|


----------------------------------------------------------------------------------|
-1-------------------------------1--------------------------------------------1---|
-0-----------2-----------2-------0---------------------2---s--4---------------0---|
-0-----------3-----------2-------0---------------------3---s--5---------------0---|
-3-----------3-------------------3---------------------3---s--5---------------3---|
-x-----------1-------------------x---------------------1---s--3---------------x---|


-------------------------------------------|
---------------------------------------1---|
----------------2---s--4---------------0---|     x2           End
----------------3---s--5---------------0---|
----------------3---s--5---------------3---|
----------------1---s--3---------------x---|
Comments