Coldplay - Til Kingdom Come Chords & Tabs

 

Til Kingdom Come Chords & Tabs

Coldplay Chords & Tabs

Version: 2 Type: Tab 0 ratings
1 star 2 stars 3 stars 4 stars 5 stars
comments

Til Kingdom Come Tab

Submitter: TheCatInTheHat
Artist: Coldplay
Song: 'Til Kingodom Come


Notes:
- This is a combined work by myself, Kapone and Acoustiks from the Coldplaying.com Forum. All thanks to them for contributing and helping me learn my favorite song off the new album.
- Listen to the song to pick up the strumming pattern and timing.


        654321
Tuning: CACGBE


Intro:

E-----0-----0
B-----1-----1
G-----0-----0
C-----0-----0
A-----3-----3
C--0--x--0--x


Verse 1:

   Steal my heart and hold my tongue
E--0-----0--0---------0----0--0
B--1-----3--5---------5----3--1
G--0-----0--0---------0----0--0
C--0-----0--0---------0----0--0
A--3-----5--7---------7----5--3
C--x-----x--x---------x----x--x

   I feel my time, my time has come
E----0----0--0--------0----0---0
B----1----3--5--------5----3---1
G----0----0--0--------0----0---0
C----0----0--0--------0----0---0
A----3----5--7--------7----5---3
C----x----x--x--------x----x---x

   Let me in, un - lock the door
E--0---0--0--------0-----0--0
B--1---3--5--------5-----3--1
G--0---0--0--------0-----0--0
C--0---0--0--------0-----0--0
A--3---5--7--------7-----5--3
C--x---x--x--------x-----x--x

  I've ne - ver felt this way be - fore
E------0----0---0----0----0---0----0
B------8----5---6----3----5---0----1
G------0----0---0----0----0---0----0
C------0----0---0----0----0---0----0
A------10---7---8----5----7---2----3
C------x----x---x----x----x---x----x


Middle 8:

   The wheels just keep on turn - ing
E------0-----------0--------------0
B------10----------6--------------1
G------0-----------0--------------0
C------0-----------0--------------0
A------12----------8--------------3
C------x-----------x--------------x

   The drummer be - gins to drum
E------0------------0-------0
B------10-----------6-------1
G------0------------0-------0
C------0------------0-------0
A------12-----------8-------3
C------x------------x-------x

   I don't know which way I'm go - ing
E----------0----------0------------0
B----------10---------6------------1
G----------0----------0------------0
C----------0----------0------------0
A----------12---------8------------3
C----------x----------x------------x

   I don't know which way I've come
E----------0----------0--------0
B----------6----------8--------1
G----------0----------0--------0
C----------0----------0--------0
A----------8----------10-------3
C----------x----------x--------x


(played over) Solo:

E--0--0--0--0--0---
B--1--3--5--3--1---
G--0--0--0--0--0---
C--0--0--0--0--0---
A--3--5--7--5--3---
C--x--x--x--x--x--0


Verse 2:

   Hold my head in - side your hands
E--0----0--0---------0----0----0
B--1----3--5---------5----3----1
G--0----0--0---------0----0----0
C--0----0--0---------0----0----0
A--3----5--7---------7----5----3
C--x----x--x---------x----x----x

   I need some - one who un - der - stands
E----0----0------0-------0----0-----0
B----1----3------5-------5----3-----1
G----0----0------0-------0----0-----0
C----0----0------0-------0----0-----0
A----3----5------7-------7----5-----3
C----x----x------x-------x----x-----x

   I need some - one, some - one who hears
E----0----0------0-----------0----0--0
B----1----3------5-----------5----3--1
G----0----0------0-----------0----0--0
C----0----0------0-----------0----0--0
A----3----5------7-----------7----5--3
C----x----x------x-----------x----x--x

   For you, I've wai - ted all these years
E------0----0----0-----0---0---0-----0
B------8----5----6-----3---5---0-----1
G------0----0----0-----0---0---0-----0
C------0----0----0-----0---0---0-----0
A------10---7----8-----5---7---2-----3
C------x----x----x-----x---x---x-----x


Chorus:

   For you I'd wait, 'til kingdom come
E--------------0------------------0
B--------------6------------------1
G--------------0------------------0
C--------------0------------------0
A--------------8------------------3
C--------------x------------------x

   Until my day, my day is done
E-----------0--------------0
B-----------6--------------1
G-----------0--------------0
C-----------0--------------0
A-----------8--------------3
C-----------x--------------x
[ Tab from: http://www.guitartabs.cc/tabs/c/coldplay/til_kingdom_come_tab_ver_2.html ]
   And say you'll come and set me free
E-----------------0--------0------0
B-----------------6--------8------10
G-----------------0--------0------0
C-----------------0--------0------0
A-----------------8--------10-----12
C-----------------x--------x------x

   Just say you'll wait,    you'll wait for me
E------------------0-----0------------------0
B------------------8-----6------------------1
G------------------0-----0------------------0
C------------------0-----0------------------0
A------------------10----8------------------3
C------------------x-----x------------------x


(played over) Solo:

E--0--0--0--0--0---
B--1--3--5--3--1---
G--0--0--0--0--0---
C--0--0--0--0--0---
A--3--5--7--5--3---
C--x--x--x--x--x--0


Verse 3:

   In your tears and in your blood
E--0--0----0---------0----0--0
B--1--3----5---------5----3--1
G--0--0----0---------0----0--0
C--0--0----0---------0----0--0
A--3--5----7---------7----5--3
C--x--x----x---------x----x--x

   In your fire and in your flood
E--0--0----0--------0--0----0
B--1--3----5--------5--3----1
G--0--0----0--------0--0----0
C--0--0----0--------0--0----0
A--3--5----7--------7--5----3
C--x--x----x--------x--x----x

   I heard you laugh, I heard you say
E----0-----0---0--------0-----0---0
B----1-----3---5--------5-----3---1
G----0-----0---0--------0-----0---0
C----0-----0---0--------0-----0---0
A----3-----5---7--------7-----5---3
C----x-----x---x--------x-----x---x

   I would - n't change a  sin - gle thing
E----0-------0---0------0--0-----0---0
B----8-------5---6------3--5-----0---1
G----0-------0---0------0--0-----0---0
C----0-------0---0------0--0-----0---0
A----10------7---8------5--7-----2---3
C----x-------x---x------x--x-----x---x


Middle 8:

   The wheels just keep on turn - ing
E------0-----------0--------------0
B------10----------6--------------1
G------0-----------0--------------0
C------0-----------0--------------0
A------12----------8--------------3
C------x-----------x--------------x

   The drummer be - gins to drum
E------0------------0-------0
B------10-----------6-------1
G------0------------0-------0
C------0------------0-------0
A------12-----------8-------3
C------x------------x-------x

   I don't know which way I'm go - ing
E----------0----------0------------0
B----------10---------6------------1
G----------0----------0------------0
C----------0----------0------------0
A----------12---------8------------3
C----------x----------x------------x

   I don't know what I've be - come
E----------0---------0---------0
B----------6---------8---------1
G----------0---------0---------0
C----------0---------0---------0
A----------8---------10--------3
C----------x---------x---------x


Chorus:

   For you I'd wait, 'til kingdom come
E--------------0------------------0
B--------------6------------------1
G--------------0------------------0
C--------------0------------------0
A--------------8------------------3
C--------------x------------------x

   Until my day, my day is done
E-----------0--------------0
B-----------6--------------1
G-----------0--------------0
C-----------0--------------0
A-----------8--------------3
C-----------x--------------x

   And say you'll come and set me free
E-----------------0--------0------0
B-----------------6--------8------10
G-----------------0--------0------0
C-----------------0--------0------0
A-----------------8--------10-----12
C-----------------x--------x------x

   Just say you'll wait,    you'll wait for me
E------------------0-----0------------------0
B------------------8-----6------------------1
G------------------0-----0------------------0
C------------------0-----0------------------0
A------------------10----8------------------3
C------------------x-----x------------------x

   Just say you'll wait,    you'll wait for me
E------------------0-----0------------------0
B------------------8-----6------------------1
G------------------0-----0------------------0
C------------------0-----0------------------0
A------------------10----8------------------3
C------------------x-----x------------------x

   Just say you'll wait,    you'll wait for me
E------------------0-----0------------------0
B------------------8-----6------------------1
G------------------0-----0------------------0
C------------------0-----0------------------0
A------------------10----8------------------3
C------------------x-----x------------------x
Comments