Coldplay - The Scientist Chords & Tabs

 

The Scientist Chords & Tabs

Coldplay Chords & Tabs

Version: 1 Type: Bass Tab 0 ratings
1 star 2 stars 3 stars 4 stars 5 stars
comments

The Scientist Bass Tab

   
No Bass until Verse 2 starts

Verse 2 (2:18)
  Dm                Bb                F                 Fsus2
G|-----------------|-----------------|-----------------|-----------------|
D|-0-0-0-0-0-0-0-0-|-----------------|-3-3-3-3-3-3-3-3-|-3-3-3-3-3-3-3-3-|3x
A|-----------------|-1-1-1-1-1-1-1-1-|-----------------|-----------------|
E|-----------------|-----------------|-----------------|-----------------|
  Dm                Bb                F                 Fsus2
G|-----------------|-----------------|-----------------|-----------------|
D|-0-0-0-0-0-0-0-0-|-----------------|-3-3-3-3-3-3-3-3-|-3-3-3-3-2-2-2-2-|
A|-----------------|-1-1-1-1-1-1-1-1-|-----------------|-----------------|
E|-----------------|-----------------|-----------------|-----------------|
[ Tab from: http://www.guitartabs.cc/tabs/c/coldplay/the_scientist_btab.html ]
Chorus
  Bb                                  F                 Fsus2
G|-----------------|-----------------|-----------------|-----------------|
D|-----------------|-----------------|-3-3-3-3-3-3-3-3-|-3-3-3-3-3-3-3-3-|2x
A|-1-1-1-1-1-1-1-1-|-1-1-1-1-1-1-1-1-|-----------------|-----------------|
E|-----------------|-----------------|-----------------|-----------------|
  C
G|-----------------|-----------------|
D|-----------------|-----------------|
A|-3-3-3-3-3-3-3-3-|-3---------------|
E|-----------------|-----------------|

Bridge
  F                 Bb                F
G|-----------------|-----------------|-----------------|-----------------|
D|-3-3-3-3-3-3-3-3-|-----------------|-3-3-3-3-3-3-3-3-|-3-3-3-3-3-3-3-3-|
A|-----------------|-1-1-1-1-1-1-1-1-|-----------------|-----------------|
E|-----------------|-----------------|-----------------|-----------------|
  Dm                Bb                F
G|-----------------|-----------------|-----------------|-----------------|
D|-0-0-0-0-0-0-0-0-|-----------------|-3-3-3-3-3-3-3-3-|-3-3-3-3-3-3-3-3-|4x
A|-----------------|-1-1-1-1-1-1-1-1-|-----------------|-----------------|
E|-----------------|-----------------|-----------------|-----------------|

Outro
  Dm                Bb                F
G|-----------------|-----------------|-----------------|
D|-0---------------|-----------------|-3---------------|
A|-----------------|-1---------------|-----------------|
E|-----------------|-----------------|-----------------|
Comments