Coldplay - Talk Chords & Tabs

 

Talk Chords & Tabs

Coldplay Chords & Tabs

Version: 3 Type: Tab 0 ratings
1 star 2 stars 3 stars 4 stars 5 stars
comments

Talk Tab

From Coldplay's third album X&Y

e----15-13---------------10--------]   3x
B----------15-13--11h13------------]
G-12-------------------------12----]
D----------------------------------]
A----------------------------------]
E----------------------------------]
[ Tab from: http://www.guitartabs.cc/tabs/c/coldplay/talk_tab_ver_3.html ]
e----15-13---------------10------10-----------------------]   
B----------15-13--11h13-------------------15-15-15-15s13--]
G-12-------------------------12------12-------------------]
D---------------------------------------------------------]
A---------------------------------------------------------]
E---------------------------------------------------------]

That's it E-mail me if you have any comments or suggestions.
Coldplay25801@yahoo.com
Comments