Coldplay - Talk Chords & Tabs

 

Talk Chords & Tabs

Coldplay Chords & Tabs

Version: 1 Type: Tab 14 ratings
1 star 2 stars 3 stars 4 stars 5 stars
comments

Talk Tab

Artist: Coldplay
Album: X&Y
Song: Talk
Tabbed by: Derek5272 (with some help from his dad.)

INTRO

e|----15-13-------------------
B|----------15-13----13-15----
G|-15-------------15-------12-
D|----------------------------
A|----------------------------
E|----------------------------  x4

e|----------------------------
B|-15----15-15-15-15\13-------
G|----12----------------14----
D|-------------------------15-
A|----------------------------
E|----------------------------

CHORUS

e|----15-13-------------------
B|----------15-13----13-15----
G|-15-------------15-------12-
D|----------------------------
A|----------------------------
E|----------------------------  x3
[ Tab from: http://www.guitartabs.cc/tabs/c/coldplay/talk_tab.html ]
e|----15----------------------
B|-------15-15-15-15\13-------
G|-12-------------------14----
D|-------------------------15-
A|----------------------------
E|----------------------------

INTERLUDE

e|----------------------------
B|-16----16----16----16-------
G|----12----12----12----12----
D|----------------------------
A|----------------------------
E|----------------------------  x2

e|----------------------------
B|-15----15----15----15-------
G|----12----12----12----12----
D|----------------------------
A|----------------------------
E|----------------------------

e|----------------------------
B|-15-------------------------
G|----12-15-12-14-15-14-12----
D|----------------------------
A|----------------------------
E|----------------------------
Comments