Coldplay - Talk Chords & Tabs

 

Talk Chords & Tabs

Coldplay Chords & Tabs

Version: 1 Type: Bass Tab 0 ratings
1 star 2 stars 3 stars 4 stars 5 stars
comments

Talk Bass Tab

   
Artist: Coldplay
Song: Talk

Tabbed by Adam

Intro / Chorus

G|---------------------------------|
D|---------------------------------|
A|-6-6-6-6-6-6-6-6---5-------------|
E|-----------------3---3-6-6-6-6-6-|

Intro / Chorus Ending

G|---------------------------------|
D|---------------------------------|
A|-6-6-6-6-6-6-6-6-8-8-8-8-8-8-8-8-|
E|---------------------------------|

Verse part 1

G|---5-------8--------12--------10-----|
D|-------------------------------------|
A|-3---3-3-6---6-6-10---10-10-8----8-8-|
E|-------------------------------------|

Verse part 2

G|---5-------8--------12--------10-------|
D|---------------------------------------|
A|-3---3-3-6---6-6-10---10-10-8------8---|
E|---------------------------------8---6-|

Verse part 3

G|---5-------8-----------------------|
D|-------------------5---------5-----|
A|-3---3-3-6---6-6-------------------|
E|-----------------3---3-3-1-3---3-3-|

Verse part 4
[ Tab from: http://www.guitartabs.cc/tabs/c/coldplay/talk_btab.html ]
G|---5-------8----------------10-----|
D|-------------------5---------------|
A|-3---3-3-6---6-6----------8----8-8-|
E|-----------------3---3-3-----------|


Interlude

G|----12(x8)-10(x8)-13(x8)-8(x8)-12(x8)-10(x8)-13(x8)-12(x8)-11(x16)-|
D|-------------------------------------------------------------------|
A|-------------------------------------------------------------------|
E|-3*----------------------------------------------------------------|

Ending

G|------|
D|------|
A|------|
E|-8-3*-|


Song Structure

Intro / Chorus (x3)
Intro / Chorus Ending
Verse part 1 
Verse part 2 
Verse part 1 
Verse part 2 
Verse part 3 
Intro / Chorus (x3)
Intro / Chorus Ending 
Verse part 1 
Verse part 2 
Verse part 1 
Verse part 2
Verse part 1
Verse part 4
Intro / Chorus (x3)
Intro / Chorus Ending
Intro / Chorus (x3)
Intro / Chorus Ending (x2)
Interlude
Intro / Chorus (x3)
Intro / Chorus Ending
Intro / Chorus (x3)
Intro / Chorus Ending
Intro / Chorus (x2)
Intro / Chorus Ending (x2)
Ending
Comments