Coldplay - Spies Chords & Tabs

 

Spies Chords & Tabs

Coldplay Chords & Tabs

Version: 1 Type: Chords 0 ratings
1 star 2 stars 3 stars 4 stars 5 stars
comments

Spies Chords

   
Intro:
C#m

Verse:
F#m, G#m, F#m, G#m, F#m, G#m, F#m, G#m,

"and the spies came out of the water"
F#m, G#m, F#m, G#m, F#m, G#m, F#m, G#m

Chorus:
C#m, G#m, F#m, G#m
e|----11-9-7----11-12-14--
b|-9----------9-------------- X4
g|---------------------------

Verse:
F#m, G#m, F#m, G#m, F#m, G#m, F#m, G#m,
[ Tab from: http://www.guitartabs.cc/tabs/c/coldplay/spies_crd.html ]
"And the spies came out of the water"
F#m, G#m, F#m, G#m, F#m, G#m, F#m, G#m

Chorus:
C#m, G#m, F#m, G#m

e|----11-9-7----11-12-14--
b|-9----------9-------------- X4
g|---------------------------

Middle 8:
"And if we don't hide here there gonna find us"

C#m, G#m, F#m, G#m x2

C#m, G#m, F#m, G#m x2

e|----11-9-7----11-12-14--
b|-9----------9-------------- X4
g|---------------------------

Outro:
C#m, G#m, F#m, F#m X2

C#m, F#m, G#m, C#m - repeat to fade
Comments