Coldplay - Sparks Chords & Tabs

 

Sparks Chords & Tabs

Coldplay Chords & Tabs

Version: 1 Type: Bass Tab 0 ratings
1 star 2 stars 3 stars 4 stars 5 stars
comments

Sparks Bass Tab

Coldplay - Sparks 
The best bass part on the album. 
Intro: 

G|------------- 
D|-----------3- 
A|-4-6-4---1--- 
E|-------4----- 

Verse: 

G|--------------------------------- 
D|----------------------6-----6---- 
A|-461--461-6--48--684---64--6---64 
E|---------1----------------------- 
[ Tab from: http://www.guitartabs.cc/tabs/c/coldplay/sparks_btab.html ]
Chorus: (say aaaaah........) 

G|---------------------------------- 
D|--------------------------------3- 
A|-64-11-33-44-66-1---11-33-44-66--- 
E|---------------------------------- 

Structure: 

Intro x4 
Verse x1 
Chorus x1 
Intro x4 
Verse x1 
Chorus x1 
Intro x4 

Submitted by Adam Sewell. 

Comments