Coldplay - Politik Chords & Tabs

 

Politik Chords & Tabs

Coldplay Chords & Tabs

Version: 3 Type: Tab 0 ratings
1 star 2 stars 3 stars 4 stars 5 stars
comments

Politik Tab

Coldplay
A Rush of Blood To The Head
Politik
============================
standard tuning EADGBe
I'm almost 100% sure this is correct.
GTR 1 Does this pretty much the whole time

play this at the beggining and at the part where he is saying "open up your eyes"
Verse 1
E----           E ----|
A--3-           A--3--|
D--2-           D--3--|
G--3- 16X Then  G--1--|16X
B--1-           B--1--|
e--0-           e--1--|

lyrics during piano

Look at earth from outer space
everyone must find a place
give me time and give me space
give me real, don't give me fake
give me strength, reserve control
give me heart and give me soul
give me time, give us a kiss
tell me your a politik

chorus:

E---           E ----|
A--3           A--3--|
D--2           D--3--|
G--3 16X Then  G--1--|16X
B--1           B--1--|
e--0           e--1--|

open up your eyes
open up your eyes
open up your eyes
open up your eyes
open up your eyes
open up your eyes
open up your eyes
open up your eyes
open up your eyes

Verse 2 with piano

give you one 'cause one is best
in confusion, confidence
give me peace of mind and trust
don't forget the rest of us
give me strength, reserve control
give me heart and give me soul
wounds that heal and cracks that fix
tell me your a politik

chorus:

E---           E ----|
A--3           A--3--|
D--2           D--3--|
G--3 16X Then  G--1--|16X
B--1           B--1--|
e--0           e--1--|

open up your eyes
open up your eyes
open up your eyes
open up your eyes
open up your eyes
open up your eyes
open up your eyes
open up your eyes
open up your eyes

guitar 2
Vibrato you'll give me love over this ahhhhhhhhhhhhhhhh
E-----------------------------------------------------------------------|
A-----------------------------------------------------------------------|
D-----------------------------------------------------------------------|
G--15------------------15----------15------15---------------------------|
B----13------------------13----------13------13-------------------------|
e------16------------------16----------16-----15------------------------|
[ Tab from: http://www.guitartabs.cc/tabs/c/coldplay/politik_tab_ver_3.html ]
ahhhhhhhhhhhh
E-----------------------------------------------------------------------|
A-----------------------------------------------------------------------|
D-----------------------------------------------------------------------|
G--15------------------15-----------15----------------------------------|
B----16------------------13-----------16--------------------------------|
e--------------------------16-----------15------------------------------|

you'll give me love over, love over, love over this
E-----------------------------------------------------------------------|
A-----------------------------------------------------------------------|
D-----------------------------------------------------------------------|
G--15------------------15----------15------15---------------------------|
B----13------------------13----------13------13-------------------------|
e------16------------------16----------16-----15------------------------|

ahhhhhhhhhhhh
E-----------------------------------------------------------------------|
A-----------------------------------------------------------------------|
D-----------------------------------------------------------------------|
G--15------------------15-----------15----------------------------------|
B----16------------------13-----------16--------------------------------|
e--------------------------16-----------15------------------------------|

E-----------------------------------------------------------------------|
A-----------------------------------------------------------------------|
D-----------------------------------------------------------------------|
G-----------------------------------------------------------------------|
B--13-13-13-13-13-13-13-13-13-13-13-13-13-13-13-13-15-15-15-15-15-15-15-|
e-----------------------------------------------------------------------|

E-----------------------------------------------------------------------|
A-----------------------------------------------------------------------|
D-----------------------------------------------------------------------|
G-----------------------------------------------------------------------|
B-15-15-15-15-15-15-15-15-15-17-17-17-17-17-17-17-17-17-17-17-17-17-17--|
e-----------------------------------------------------------------------|

E-----------------------------------------------------------------------|
A-----------------------------------------------------------------------|
D-----------------------------------------------------------------------|
G-----------------------------------------------------------------------|
B-17-17-15-15-15-15-15-15-15-15--end on 13------------------------------|
e-----------------------------------------------------------------------|
well that's it, i'm out
Comments