Coldplay - Politik Live Chords & Tabs

 

Politik Live Chords & Tabs

Coldplay Chords & Tabs

Version: 1 Type: Bass Tab 0 ratings
1 star 2 stars 3 stars 4 stars 5 stars
comments

Politik Live Bass Tab

   
-------------------------------------------------------------------------------
			     POLITIK (Live) - Coldplay
-------------------------------------------------------------------------------

Tabbed By : Cléme
e-mail: kepingap@cegetel.net
It's a beautiful song!!! Congrulation Chris Martin
Tuning: E, A, D, G
Intro
G|-----------------------------------------------------------------------------|
D|-----------------------------------------------------------------------------|
A|-3333333333333333/88888888888888883333333333333333/8888888888888888/15-|
E|-----------------------------------------------------------------------------|
Chorus 1
G|-----------------------------------------------------------------------------|
D|-----------------------------------------------------------------------------|
A|-3333333333333333-------------------3333333333333333-------------------------|
E|-------------------11111111111111111------------------1111111111111111-------|

G|------------------------------------------------------------------------------|
D|------------------------------------------------------------------------------|
A|-3333333333333333/888888888888888811-11/15------------------------------------|
E|------------------------------------------------------------------------------|
Verse 2
G|---------------------------------------------------------------------------|
D|-3---------------3/10------------------------------------------------------|
A|-------------------------------------8-----------------3-------------------|
E|---------------------------------------------------------------------------|

G|-----------------------------------------------------------------------------|
D|-----------------------------------------------------------------------------|
A|-8--------11-11108-3----------------8--------11-11108-3----------------------|
E|-----------------------------------------------------------------------------|
[ Tab from: http://www.guitartabs.cc/tabs/c/coldplay/politik_live_btab.html ]
G|---------------------------------------------------------------------------|
D|---------------------------------------------------------------------------|
A|-8--------11-11108-3-------------------------------------------------------|
E|---------------------------------------------------------------------------|
Chorus 2
G|-----------------------------------------------------------------------------|
D|-----------------------------------------------------------------------------|
A|-3333333333333333------------------------------------------------------------|
E|-------------------11111111111111111-----------------------------------------|

G|------------------------------------------------------------------------------|
D|------------------------------------------------------------------------------|
A|-3333333333333333/888888888888888811-11-11-11/3-------------------------------|
E|------------------------------------------------------------------------------|
Bridge
G|---------------------------------------------------------------------------|
D|-------------------------------------6-------------------------------------|
A|-8/----------------4-----------------------------------6-------------------|
E|---------------------------------------------------------------------------|

G|---------------------------------------------------------------------------|
D|---------------------------------------------------------------------------|
A|-8/----------------4-----------------------------------6-------------------|
E|-------------------------------------4/------------------------------------|

G|-----------------------------------------------------------------------------|
D|-----------------------------------------------------------------------------|
A|-888888888888888844444444444444444------------------6666666666666666---------|
E|-------------------------------------4444444444444444------------------------|

G|-----------------------------------------------------------------------------|
D|-----------------------------------------------------------------------------|
A|------------------44444444444444444------------------6666666666666666--------|
E|-1111111111111111-------------------4444444444444444-------------------------|
 The End with piano
G|-------------------------------------------------------------------------------|
D|-------------------------------------------------------------------------------|
A|-------------------------------------------------------------------------------|
E|-1//////////////////8----------------------------------------------------------|

Intro
Verse 1: Just Piano
Chorus 1
Verse 2
Chorus 2
Bridge
The End

| /  slide up
| \  slide down
| h  hammer-on
| p  pull-off
| ~  vibrato
| +  harmonic
| x  Mute note
===============================================================================
Comments