Coldplay - Parachutes Chords & Tabs

 

Parachutes Chords & Tabs

Coldplay Chords & Tabs

Version: 5 Type: Tab 0 ratings
1 star 2 stars 3 stars 4 stars 5 stars
comments

Parachutes Tab

------------------------------------------------------------
                     Coldplay: Parachutes
------------------------------------------------------------

This tab is soooooo correct, so dont moan.
------------------------------------------------------------
------------------------------------------------------------
-----7------7-----------4-----4-----------------------------
--------8------------------6-------x2-----------------------
------------------------------------------------------------
-6-----------------4----------------------------------------

------------------------------------------------------------
------------------------------------------------------------
-----2------2--------2-----2-----------1-----1--------------
--------4---------------4-----------------2-----------------
------------------------------------------------------------
--2-------------2------------------0--------------0---------
[ Tab from: http://www.guitartabs.cc/tabs/c/coldplay/parachutes_tab_ver_5.html ]
------------------------------------------------------------
------------------------------------------------------------
-----7------7-----------4-----4-----------------------------
--------8------------------6-------x2-----------------------
------------------------------------------------------------
-6-----------------4----------------------------------------
'In a haze a stormy haze'   'Ill be round ill be lovin you

------------------------------------------------------------
------------------------------------------------------------
-----2------2--------2-----2-----------1-----1--------------
--------4---------------4-----------------2-----------------
------------------------------------------------------------
--2-------------2------------------0--------------0---------

'allways'                        'allways'
------------------------------------------------------------
------------------------------------------------------------
-----7------7-----------4-----4-----------------------------
--------8------------------6-------x2-----------------------
------------------------------------------------------------
-6-----------------4----------------------------------------

next verse (cant remember lyrics!)
------------------------------------------------------------
------------------------------------------------------------
-----2------2--------2-----2-----------1-----1--------------
--------4---------------4-----------------2-----------------
------------------------------------------------------------
--2-------------2------------------0--------------0---------

End song.

This tab works well if you bar chord them all!
Thanks for usin it....Its a great song so make use!!!!
Comments