Coldplay - One I Love Chords & Tabs

 

One I Love Chords & Tabs

Coldplay Chords & Tabs

Version: 1 Type: Tab 0 ratings
1 star 2 stars 3 stars 4 stars 5 stars
comments

One I Love Tab

   



Coldplay

One I love - In my Place B-Side
 
Tabbed by: Mark Bryce	23rd March 2005

Email: Brycey81a@hotmail.com
Web: www.brycey.co.uk


_____________________________________________________

Tuning: EADGBe

Legend
	h    - hammer on
	p    - pull off
	/    - slide up
        x    - muted note
	

Guitar 1: Rhythm Guitar
Guitar 2: Lead Guitar


_____________________________________________________



Intro part 1:



Guitar 1 (upstroke)

  Asus2

e|--0----|
B|--0----|
G|--2----| 
D|--2----|
A|--0----|
E|-------|


          Asus2		      C
 
e|---0-0-0-0-0-0-0-0---0-0-0-0-0-0-0-0---|
B|---0-0-0-0-0-0-0-0---1-1-1-1-1-1-1-1---|
G|---2-2-2-2-2-2-2-2---0-0-0-0-0-0-0-0---| 
D|---2-2-2-2-2-2-2-2---2-2-2-2-2-2-2-2---|
A|---0-0-0-0-0-0-0-0---3-3-3-3-3-3-3-3---|
E|---------------------------------------|

          G6                 Dsus2

e|---0-0-0-0-0-0-0-0---0-0-0-0-0-0-0-0---|
B|---0-0-0-0-0-0-0-0---3-3-3-3-3-3-3-3---|
G|---0-0-0-0-0-0-0-0---2-2-2-2-2-2-2-2---| 
D|---0-0-0-0-0-0-0-0---0-0-0-0-0-0-0-0---| 
A|---2-2-2-2-2-2-2-2---------------------|
E|---3-3-3-3-3-3-3-3---------------------|


Guitar 2 

  
e|-x-x-x-x-x-x-x-x-x-x-x-x-x-x-x-x-x-x-x-|
B|-5-5-5-5-5-5-5-5-5-5-7-7-7-7-7-7-5-5-5-|
G|---------------------------------------| 
D|---------------------------------------|
A|---------------------------------------|
E|---------------------------------------|


____________________________________________________


Intro part 2:


Guitar 1

          Asus2		    G6   Gmaj13
 
e|---0-0-0-0-0-0-0-0-0-0---0-0-0-0-0-0--|
B|---0-0-0-0-0-0-0-0-0-0---0-0-0-0-0-0--|
G|---2-2-2-2-2-2-2-2-2-2---0-0-0-0-0-0--| 
D|---2-2-2-2-2-2-2-2-2-2---0-0-0-0-0-0--|
A|---0-0-0-0-0-0-0-0-0-0---2-2-2-0-0-0--|
E|-------------------------3-3-3-2-2-2--|



Guitar 2

             A	           
 
e|---5-5-5-5-5-5-5-5-5-5----------------|
B|---5-5-5-5-5-5-5-5-5-5----------------|
G|---6-6-6-6-6-6-6-6-6-6----------------| 
D|---7-7-7-7-7-7-7-7-7-7-------5---4----| (x2)
A|---7-7-7-7-7-7-7-7-7-7---3/5---5------|
E|---5-5-5-5-5-5-5-5-5-5----------------|



____________________________________________________



Verse 1 


Could you, could you come back
Come back together
Put yourself on my back
And say its forever
Could you, could you come on
Come on forever
Shoulders, knees in my back
Keep us together


Guitar 1

   
       Asus2		    G6   Gmaj13
 
e|---0-0-0-0-0-0-0-0-0-0---0-0-0-0-0-0--|
B|---0-0-0-0-0-0-0-0-0-0---0-0-0-0-0-0--|
G|---2-2-2-2-2-2-2-2-2-2---0-0-0-0-0-0--| 
D|---2-2-2-2-2-2-2-2-2-2---0-0-0-0-0-0--|
A|---0-0-0-0-0-0-0-0-0-0---2-2-2-0-0-0--|
E|-------------------------3-3-3-2-2-2--|

Guitar 2

             A	           
 
e|---5-5-5-5-5-5-5-5-5-5----------------|
B|---5-5-5-5-5-5-5-5-5-5----------------|
G|---6-6-6-6-6-6-6-6-6-6----------------| 
D|---7-7-7-7-7-7-7-7-7-7-------0------0-|
A|---7-7-7-7-7-7-7-7-7-7-----0------0---|
E|---5-5-5-5-5-5-5-5-5-5---3------2-----|



____________________________________________________


Chorus:


'Cause you're the one I love,
You're the one I love,
You're the one I love,
and I...


Guitar 1


          Asus2		      C
 
e|---0-0-0-0-0-0-0-0---0-0-0-0-0-0-0-0---|
B|---0-0-0-0-0-0-0-0---1-1-1-1-1-1-1-1---|
G|---2-2-2-2-2-2-2-2---0-0-0-0-0-0-0-0---| 
D|---2-2-2-2-2-2-2-2---2-2-2-2-2-2-2-2---|
A|---0-0-0-0-0-0-0-0---3-3-3-3-3-3-3-3---|
E|---------------------------------------|

          G6                 Dsus2

e|---0-0-0-0-0-0-0-0---0-0-0-0-0-0-0-0---|
B|---0-0-0-0-0-0-0-0---3-3-3-3-3-3-3-3---|
G|---0-0-0-0-0-0-0-0---2-2-2-2-2-2-2-2---| 
D|---0-0-0-0-0-0-0-0---0-0-0-0-0-0-0-0---| 
A|---2-2-2-2-2-2-2-2---------------------|
E|---3-3-3-3-3-3-3-3---------------------|




Guitar 2
           A		      C
 
e|---5-5-5-5-5-5-5-5---------------------|
B|---5-5-5-5-5-5-5-5---5-5-5-5-5-5-5-5---|
G|---6-6-6-6-6-6-6-6---5-5-5-5-5-5-5-5---| 
D|---7-7-7-7-7-7-7-7---5-5-5-5-5-5-5-5---|
A|---7-7-7-7-7-7-7-7---3-3-3-3-3-3-3-3---|
E|---5-5-5-5-5-5-5-5---------------------|

          G                 D

e|---3-3-3-3-3-3-3-3---------------------|
B|---3-3-3-3-3-3-3-3---7-7-7-7-7-7-7-7---|
G|---4-4-4-4-4-4-4-4---7-7-7-7-7-7-7-7---| 
D|---5-5-5-5-5-5-5-5---7-7-7-7-7-7-7-7---| 
A|---5-5-5-5-5-5-5-5---5-5-5-5-5-5-5-5---|
E|---3-3-3-3-3-3-3-3---------------------|



____________________________________________________


Instrumental


Guitar 1


          Asus2		      C
 
e|---0-0-0-0-0-0-0-0---0-0-0-0-0-0-0-0---|
B|---0-0-0-0-0-0-0-0---1-1-1-1-1-1-1-1---|
G|---2-2-2-2-2-2-2-2---0-0-0-0-0-0-0-0---| 
D|---2-2-2-2-2-2-2-2---2-2-2-2-2-2-2-2---|
A|---0-0-0-0-0-0-0-0---3-3-3-3-3-3-3-3---|
E|---------------------------------------|

          G6                 Dsus2

e|---0-0-0-0-0-0-0-0---0-0-0-0-0-0-0-0---|
B|---0-0-0-0-0-0-0-0---3-3-3-3-3-3-3-3---|
G|---0-0-0-0-0-0-0-0---2-2-2-2-2-2-2-2---| 
D|---0-0-0-0-0-0-0-0---0-0-0-0-0-0-0-0---| 
A|---2-2-2-2-2-2-2-2---------------------|
E|---3-3-3-3-3-3-3-3---------------------|


Guitar 2 

  
e|-x-x-x-x-x-x-x-x-x-x-x-x-x-x-x-x-x-x-x-|
B|-5-5-5-5-5-5-5-5-5-5-7-7-7-7-7-7-5-5-5-|
G|---------------------------------------| 
D|---------------------------------------|
A|---------------------------------------|
E|---------------------------------------|


____________________________________________________


Verse 2

Could you, could you come in
Could you tell me forever
Tie youself to a mast
It's now or it's never
[ Tab from: http://www.guitartabs.cc/tabs/c/coldplay/one_i_love_tab.html ]

Guitar 1

   
       Asus2		    G6   Gmaj13
 
e|---0-0-0-0-0-0-0-0-0-0---0-0-0-0-0-0--|
B|---0-0-0-0-0-0-0-0-0-0---0-0-0-0-0-0--|
G|---2-2-2-2-2-2-2-2-2-2---0-0-0-0-0-0--| 
D|---2-2-2-2-2-2-2-2-2-2---0-0-0-0-0-0--|
A|---0-0-0-0-0-0-0-0-0-0---2-2-2-0-0-0--|
E|-------------------------3-3-3-2-2-2--|

Guitar 2

             A	           
 
e|---5-5-5-5-5-5-5-5-5-5----------------|
B|---5-5-5-5-5-5-5-5-5-5----------------|
G|---6-6-6-6-6-6-6-6-6-6----------------| 
D|---7-7-7-7-7-7-7-7-7-7-------0------0-|
A|---7-7-7-7-7-7-7-7-7-7-----0------0---|
E|---5-5-5-5-5-5-5-5-5-5---3------2-----|



Could it tear us apart
Tell me forever
It's gonna tear us apart
Keep us together,


       Asus2		    G6   Gmaj13
 
e|---0-0-0-0-0-0-0-0-0-0---0-0-0-0-0-0--|
B|---0-0-0-0-0-0-0-0-0-0---0-0-0-0-0-0--|
G|---2-2-2-2-2-2-2-2-2-2---0-0-0-0-0-0--| 
D|---2-2-2-2-2-2-2-2-2-2---0-0-0-0-0-0--|
A|---0-0-0-0-0-0-0-0-0-0---2-2-2-0-0-0--|
E|-------------------------3-3-3-2-2-2--|

Guitar 2

             A	           
 
e|-------5-5-5-5-5-5-5-5----------------|
B|-------5-5-5-5-5-5-5-5----------------|
G|-------6-6-6-6-6-6-6-6----------------| 
D|---x---7-7-7-7-7-7-7-7-------5---4----|
A|---x---7-7-7-7-7-7-7-7---3/5---5------|
E|---3---5-5-5-5-5-5-5-5----------------|



____________________________________________________


Chorus:


'Cause you're the one I love,
You're the one I love,
You're the one I love,
and I...


Guitar 1


          Asus2		      C
 
e|---0-0-0-0-0-0-0-0---0-0-0-0-0-0-0-0---|
B|---0-0-0-0-0-0-0-0---1-1-1-1-1-1-1-1---|
G|---2-2-2-2-2-2-2-2---0-0-0-0-0-0-0-0---| 
D|---2-2-2-2-2-2-2-2---2-2-2-2-2-2-2-2---|
A|---0-0-0-0-0-0-0-0---3-3-3-3-3-3-3-3---|
E|---------------------------------------|

          G6                 Dsus2

e|---0-0-0-0-0-0-0-0---0-0-0-0-0-0-0-0---|
B|---0-0-0-0-0-0-0-0---3-3-3-3-3-3-3-3---|
G|---0-0-0-0-0-0-0-0---2-2-2-2-2-2-2-2---| 
D|---0-0-0-0-0-0-0-0---0-0-0-0-0-0-0-0---| 
A|---2-2-2-2-2-2-2-2---------------------|
E|---3-3-3-3-3-3-3-3---------------------|




Guitar 2
           A		      C
 
e|---5-5-5-5-5-5-5-5---------------------|
B|---5-5-5-5-5-5-5-5---5-5-5-5-5-5-5-5---|
G|---6-6-6-6-6-6-6-6---5-5-5-5-5-5-5-5---| 
D|---7-7-7-7-7-7-7-7---5-5-5-5-5-5-5-5---|
A|---7-7-7-7-7-7-7-7---3-3-3-3-3-3-3-3---|
E|---5-5-5-5-5-5-5-5---------------------|

          G                 D

e|---3-3-3-3-3-3-3-3---------------------|
B|---3-3-3-3-3-3-3-3---7-7-7-7-7-7-7-7---|
G|---4-4-4-4-4-4-4-4---7-7-7-7-7-7-7-7---| 
D|---5-5-5-5-5-5-5-5---7-7-7-7-7-7-7-7---| 
A|---5-5-5-5-5-5-5-5---5-5-5-5-5-5-5-5---|
E|---3-3-3-3-3-3-3-3---------------------|



____________________________________________________



Bridge


       ohhhhhhhhhhh      ohhhhhhhhhhh

Guitar 1

       Asus2		    
 
e|---0-0-0-0-0-0-0-0-0-0-0-0-0-0-0-0--|
B|---0-0-0-0-0-0-0-0-0-0-0-0-0-0-0-0--|
G|---2-2-2-2-2-2-2-2-2-2-2-2-2-2-2-2--| 
D|---2-2-2-2-2-2-2-2-2-2-2-2-2-2-2-2--|
A|---0-0-0-0-0-0-0-0-0-0-0-0-0-0-0-0--|
E|------------------------------------|





____________________________________________________


Instrumental 



Guitar 1


          Asus2		      C
 
e|---0-0-0-0-0-0-0-0---0-0-0-0-0-0-0-0---|
B|---0-0-0-0-0-0-0-0---1-1-1-1-1-1-1-1---|
G|---2-2-2-2-2-2-2-2---0-0-0-0-0-0-0-0---| 
D|---2-2-2-2-2-2-2-2---2-2-2-2-2-2-2-2---|
A|---0-0-0-0-0-0-0-0---3-3-3-3-3-3-3-3---|
E|---------------------------------------|

          G6                 Dsus2

e|---0-0-0-0-0-0-0-0---0-0-0-0-0-0-0-0---|
B|---0-0-0-0-0-0-0-0---3-3-3-3-3-3-3-3---|
G|---0-0-0-0-0-0-0-0---2-2-2-2-2-2-2-2---| 
D|---0-0-0-0-0-0-0-0---0-0-0-0-0-0-0-0---| 
A|---2-2-2-2-2-2-2-2---------------------|
E|---3-3-3-3-3-3-3-3---------------------|


Guitar 2 

  
e|-x-x-x-x-x-x-x-x-x-x-x-x-x-x-x-x-x-x-x-|
B|-5-5-5-5-5-5-5-5-5-5-7-7-7-7-7-7-5-5-5-|
G|---------------------------------------| 
D|---------------------------------------|
A|---------------------------------------|
E|---------------------------------------|



____________________________________________________


Outro part 1



Guitar 2
  
 
e|-----------------------------------------|
B|--15-------------------14----------------|
G|--14-12----12-14-12----14-12----12-14-12-| 
D|--------14-------------------14----------|
A|-----------------------------------------|
E|-----------------------------------------|



Guitar 1 enters:
    

    Asus4  G6		Asus2

e|---0-----0--------------0----------------|
B|---3-----0--------------0----------------|
G|---2-----0--------------2----------------| 
D|---2-----0--------------2----------------|
A|---0-----2--------------0----------------|
E|---------3-------------------------------|


____________________________________________________


Outro part 2


You're the one I love,
You're the one I love,
You're the one I love,


Guitar 1
    

    Asus4  G6		Asus2

e|---0-----0--------------0----------------|
B|---3-----0--------------0----------------|
G|---2-----0--------------2----------------| 
D|---2-----0--------------2----------------|
A|---0-----2--------------0----------------|
E|---------3-------------------------------|


Guitar 2
  
 
e|-----------------------------------------|
B|--15-------------------14----------------|
G|--14-12----12-14-12----14-12----12-14-12-| 
D|--------14-------------------14----------|
A|-----------------------------------------|
E|-----------------------------------------|


The End

By Mark Bryce
Comments