Coldplay - Moses Chords & Tabs

 

Moses Chords & Tabs

Coldplay Chords & Tabs

Version: 4 Type: Tab 0 ratings
1 star 2 stars 3 stars 4 stars 5 stars
comments

Moses Tab

   
                                Moses
                             By Coldplay
I think this is a pretty accurate tab, I didn't however the right amount
of strums for Figure 1 or 2 you will have to listen to the song.

Standard tuning

First part of intro is Fig. 1 the last part is the Intro2.

Solo:

E--12-12-12-11-------11----11----11-12-12-12-11------7---7---7---
B--------------12-10----10----10----------------12-9---9---9-----
G----------------------------------------------------------------
D----------------------------------------------------------------
A----------------------------------------------------------------
E----------------------------------------------------------------

Intro2:
E-12-12-12-11-------11----11----11-12-12-12-11------7----7------
B--------------12-10----10----10--------------12-9---7-9--9-7-9-7
G----------------------------------------------------------------
D----------------------------------------------------------------
A----------------------------------------------------------------
E----------------------------------------------------------------


Figure 1 (Repeats these chords throughout the lyrics)

E---0000-0000--0000----------------------------------------------
B---0000-0000--0000----------------------------------------------
G---4444-2222--1111----------------------------------------------
D---4444-4444--2222----------------------------------------------
A---2222-4444--2222----------------------------------------------
E---0000-0000--0000----------------------------------------------

Verse 1: Figure 1

Come on now, don't you want to see,
This thing that's happening to me,
Like Moses has power over sea,
So you've got power over me,

Solo

Verse 2: Figure 1

Come on now don't you want to know,
You're a refuge, somewhere I can go,
You're air that, air that I can breathe,
You're my golden opportunity,

Solo
[ Tab from: http://www.guitartabs.cc/tabs/c/coldplay/moses_tab_ver_4.html ]
Chorus: 
D                Fig2
And oh, oh yes I would,
Fig2       D
If I only could,
D               Fig2
And you know I would,
Fig2      D   Fig2
And baby I,
Fig2     D    Fig2
Oh baby I,

I wish,

Figure 2
E----4444---------------------------------------------------
B----5555---------------------------------------------------
G----4444---------------------------------------------------
D----0000---------------------------------------------------
A----0000---------------------------------------------------
E----0000---------------------------------------------------

Solo

Verse 3: Figure 1

Come on now, don't you want to see,
Just what a difference you've made in me,
I'll be waiting oh no matter what you say,
Cause I've been waiting for days and days and days,

Chorus: 
D                Fig2
And oh, oh yes I would,
Fig2       D
If I only could,
D               Fig2
And you know I would,
Fig2      D   Fig2
And baby I,
Fig2     D    Fig2
Oh baby I,

I wish,

Bridge: (For the "oh"'s play figure 1

Oh,       oh,       oh,
Oh,       oh,       oh,

D                  Fig2                     D
If the sky's gonna fall down let it fall on me,
D                  Fig2                     D
If you're gonna break down you can break on me,
D                  Fig2                     D
If the sky's gonna fall down let it fall on me,
D                  Fig2                     D
If it's gonna rain down it can rain on me,

Figure 1


End:

E---0000-0000--0000-----------------------------------------------
B---0000-0000--0000---------0-------------------------------------
G---0000-0000--1111-------2---------------------------------------
D---7777-9999--2222-----4-----------------------------------------
A---7777-9999--2222---4-------------------------------------------
E---5555-7777--0000-2---------------------------------------------
Comments