Coldplay - Moses Chords & Tabs

 

Moses Chords & Tabs

Coldplay Chords & Tabs

Version: 1 Type: Tab 0 ratings
1 star 2 stars 3 stars 4 stars 5 stars
comments

Moses Tab

Artist    : Coldplay  - Chris Martin, Will Champion, Guy Berryman, Jon Buckland,
Title     : Moses [Live]

Tabbed by : GiBStEaK - James Crockford UK

NOTES

Hey, this is my first Tab so be gentle :) 
I tabbed this mainly from the Live DVD Version
This is the part Chris plays

I am 99% Sure these are the correct tabs

___________________________________________________________

    
   /   = slide to
   h   = hammer on
   p   = pull off
|---:| = Play this piece over again once (unless stated otherwise)
   ^   = play the chord slower in one stroke so you can hear the individual srings.
         (i think this is called an Arpeggiate)

[[[CAPO 2]]] [all chords in relation to capo]

Standard Tuning : EADGAE (probably) :)

Listen to the song for Rythem and Timing (if you've got it watch the DVD)

INTRO

e|----0-------0-----------------------------0-----:|
B|----0-------0-----------------------------0-----:|
G|----2-------0-----------------------------0-----:|
D|----2-------2----------------------------h4-----:|  [here you need to hammer the chord (this can be difficult)]
A|----0-------2---------------------0------h5-----:|
E|----0-------0---------------------0h2h3p0h5-----:| x4
      
VERSE     
           Come one ...
|----0-------0-----------------------------0-----:|
|----0-------0-----------------------------0-----:|
|----2-------0-----------------------------0-----:|
|----2-------2----------------------------h4-----:|  
|----0-------2---------------------0------h5-----:|
|----0-------0---------------------0h2h3p0h5-----:| x4

PRE-VERSE

|----0-------0-----------------------------0-----:|
|----0-------0-----------------------------0-----:|
|----2-------0-----------------------------0-----:|
|----2-------2----------------------------h4-----:|  
|----0-------2---------------------0------h5-----:|
|----0-------0---------------------0h2h3p0h5-----:| x2

VERSE         
            Come one ...
|----0-------0-----------------------------0-----:|
|----0-------0-----------------------------0-----:|
|----2-------0-----------------------------0-----:|
|----2-------2----------------------------h4-----:|  
|----0-------2---------------------0------h5-----:|
|----0-------0---------------------0h2h3p0h5-----:| x4


CHORUS
      
      and oh ..........     
-------------0--------0---0---0----------------0-----
-------------0--------0---0---0----------------0-----
-------------0--------0---0---0----------------0-----
-------------2--------9---5---4----------------2-----
-------------3--------10--7---5----------------3-----
-------------3--------10--7---5----------------3----- 


     

----------------0--------|---------0-----------------0-- :|
----------------0--------|---------0-----------------0-- :|
----------------0--------|---------0-----------------0-- :|
----------------4--------|---------2-----------------4-- :|
----------------5--------|---------3-----------------5-- :|
----------------5--------|---------3-----------------5-- :|

PRE-VERSE
[ Tab from: http://www.guitartabs.cc/tabs/c/coldplay/moses_tab.html ]
|----0-------0-----------------------------0-----:|
|----0-------0-----------------------------0-----:|
|----2-------0-----------------------------0-----:|
|----2-------2----------------------------h4-----:|  
|----0-------2---------------------0------h5-----:|
|----0-------0---------------------0h2h3p0h5-----:| x2

VERSE     
           
|----0-------0-----------------------------0-----:|
|----0-------0-----------------------------0-----:|
|----2-------0-----------------------------0-----:|
|----2-------2----------------------------h4-----:|  
|----0-------2---------------------0------h5-----:|
|----0-------0---------------------0h2h3p0h5------| x4
         and oh ...

-------------0--------0---0---0----------------0-----
-------------0--------0---0---0----------------0-----
-------------0--------0---0---0----------------0-----
-------------2--------9---5---4----------------2-----
-------------3--------10--7---5----------------3-----
-------------3--------10--7---5----------------3----- 


      

----------------0--------|---------0-----------------0-- :|
----------------0--------|---------0-----------------0-- :|
----------------0--------|---------0-----------------0-- :|
----------------4--------|---------2-----------------4-- :|
----------------5--------|---------3-----------------5-- :|
----------------5--------|---------3-----------------5-- :|



|----0-------0-----------------------------0-----:|
|----0-------0-----------------------------0-----:|
|----2-------0-----------------------------0-----:|
|----2-------2----------------------------h4-----:|  
|----0-------2---------------------0------h5-----:|
|----0-------0---------------------0h2h3p0h5-----:| x4

CHORUS 2

    if the skies ...

|-------------0--------0---0---0----------------0-----
|-------------0--------0---0---0----------------0-----
|-------------0--------0---0---0----------------0-----
|-------------2--------9---5---4----------------2-----
|-------------3--------10--7---5----------------3-----
|-------------3--------10--7---5----------------3----- 



----------------0-----------------0----------:|
----------------0-----------------0----------:|
----------------0-----------------0----------:|
----------------4-----------------2----------:|
----------------5-----------------3----------:|
----------------5-----------------3----------:| x2


|----0-------0-----------------------------0-----:|
|----0-------0-----------------------------0-----:|
|----2-------0-----------------------------0-----:|
|----2-------2----------------------------h4-----:|  
|----0-------2---------------------0------h5-----:|
|----0-------0---------------------0h2h3p0h5-----:| x4



--0---------------0------------------0------------------0--------------0-------------0--^0--
--0---------------0------------------0------------------0--------------0-------------0--^0--
--0---------------0------------------0------------------0--------------0-------------0--^0--
--2--------------/4------------------2-----------------/4--------------2------------/4--^2--
--3--------------/5------------------3-----------------/5--------------3------------/5--^2--
--3--------------/5------------------3-----------------/5--------------3------------/5--^0--


Any corrections or comments about this tab mail:

jamescrockford@hotmail.com
Comments