Coldplay - In My Place Chords & Tabs

 

In My Place Chords & Tabs

Coldplay Chords & Tabs

Version: 6 Type: Tab 0 ratings
1 star 2 stars 3 stars 4 stars 5 stars
comments

In My Place Tab

   
#----------------------------------PLEASE NOTE----------------------------------#
# This file is the author's own work and represents their interpretation of the #
# song. You may only use this file for private study, scholarship, or research. #
#-------------------------------------------------------------------------------#

Artist:    Coldplay
Song:      In My Place
Album:     A Rush of Blood to the Head
Tabbed By: Angus Jones 

=================================================


I saw the tab for this on coldplayonline.com and thought i could chuck in
a few corrections/suggestions... this version requires no capos!

Intro and repeat after chorus and during bridge...

e|--12------12----9----------9----------9------------------------------------|
B|---------------------12---------12-----------------------------------------|
G|------9--------------------------------------------------------------------|
D|---------------------------------------------------------------------------|
A|---------------------------------------------------------------------------|
E|---------------------------------------------------------------------------|

Intro variation...
[ Tab from: http://www.guitartabs.cc/tabs/c/coldplay/in_my_place_tab_ver_6.html ]
e|--12------12----9b10r9----------9----------9-------------------------------|
B|--------------------------12---------12------------------------------------|
G|------9--------------------------------------------------------------------|
D|---------------------------------------------------------------------------|
A|---------------------------------------------------------------------------|
E|---------------------------------------------------------------------------|

Verse 

A (x02220) G#/A (4x2220) C#m (x46654) E (012200)


     A		 G#/A
In my place, In my place
    C#m    E
Crossed lines I could not change

I don't know the rest of the lyrics... but you can probably figure
out the rythym from here...

Chorus

D (xx0232) A (x02220) E (012200)

     D             A             E
Yeeeeeeeeah, How long must you wait for it

repeat...

End Chorus...

    D       D        E
For it....


There are some other cool underlying guitar parts, but I don't think I'll
tab those... yet, anyway, happy strumming and if you have any suggestions
or corrections please mail them to me (one_thirty_seven@hotmail.com)


Hope the tab is correct, peace.
Comments