Coldplay - In My Place Chords & Tabs

 

In My Place Chords & Tabs

Coldplay Chords & Tabs

Version: 4 Type: Tab 0 ratings
1 star 2 stars 3 stars 4 stars 5 stars
comments

In My Place Tab

   
Coldplay: A Rush Of Blood To The Head
Title: In My Place
Words & music: Guy Berryman, Jon Buckland, Will Champion & Chris Martin

Transcribed By - Liam Manton - liammantonuk@hotmail.com

Chords Used:

A[x02220] or [577655]
Amaj7[x02120] or [477655] A/G#
C#m[x46654]
F#m[244222]
E[022100] or [x79997]
D[xx0232] or [x57775]


Intro riff:

Riff A:
E|--12--12--------9-----9-----| played a few times.
B|------------12----12--------| for variation play riff B
G|----9----9------------------| without the last note

Riff B:
E|-12---12----------9----9----|
B|---------12/14-12---12---11-| (last time before the verse)
G|----9-----------------------|

------------------------------------------------------

Chorus:

   D                A             E         D
e|-----5------------5-------------7---------5---------|
B|----7-------------5-------------9---------7---------|
G|---7-------5------6-(strum)-----9-(strum)-7-(strum)-|
D|--7----5h7--------7-------------9---------7---------|
A|-5----------------7-------------7---------5---------|
E|------------------5---------------------------------|
   Yeah______


   D (cont.)        A             E         D
e|-5----------------5-------------7---------5---------|
B|-7----------------5-------------9---------7---------|
G|-7-(cont.)---5----6-(strum)-----9-(strum)-7-(strum)-|
D|-7-------5h7------7-------------9---------7---------|
A|-5----------------7-------------7---------5---------|
E|------------------5---------------------------------|
   Yeah______


   D (cont.)        A             E         D
e|-5----------------5-------------7---------5---------|
B|-7----------------5-------------9---------7---------|
G|-7-(cont.)---5----6-(strum)-----9-(strum)-7-(strum)-|
D|-7-------5h7------7-------------9---------7---------|
A|-5----------------7-------------7---------5---------|
E|------------------5---------------------------------|
   Yeah______
[ Tab from: http://www.guitartabs.cc/tabs/c/coldplay/in_my_place_tab_ver_4.html ]
          E
e|-----------------|
B|--------------9--|
G|------------9----| play intro riff after this
D|----------9------|
A|--------7--------|
E|-----------------|
  

Verse

   A        A/G#       C#m
e|-7-----7--4-----4----4-----4-|
B|-----5--------6----------6---|
G|---6--------5----------5-----|
     

   E                        A
e|-4-----4------------------7-----7-|
B|-----5------------------------6---|
G|---6------------------------5-----|
 

       F#m      C#m     E
e|-----4-----4--4-----4-4-----4|
B|---------6--------6-------6--|
G|-------5--------5-------5----|
 

-------------------------------------------------------
Chorus

   D                A             E         D
e|-----5------------5-------------7---------5---------|
B|----7-------------5-------------9---------7---------|
G|---7-------5------6-(strum)-----9-(strum)-7-(strum)-|
D|--7----5h7--------7-------------9---------7---------|
A|-5----------------7-------------7---------5---------|
E|------------------5---------------------------------|
   Yeah_______,


   D (continued)    A             E         D
e|-5----------------5-------------7---------5---------|
B|-7----------------5-------------9---------7---------|
G|-7-(cont.)---5----6-(strum)-----9-(strum)-7-(strum)-|
D|-7-------5h7------7-------------9---------7---------|
A|-5----------------7-------------7---------5---------|
E|------------------5---------------------------------|
   Yeah_______, 


   D (continued)    A             E         D
e|-5----------------5-------------7---------5---------|
B|-7----------------5-------------9---------7---------|
G|-7-(cont.)---5----6-(strum)-----9-(strum)-7-(strum)-|
D|-7-------5h7------7-------------9---------7---------|
A|-5----------------7-------------7---------5---------|
E|------------------5---------------------------------|
   Yeah______

          E
e|-----------------|
B|--------------9--|
G|------------9----| play intro riff after this
D|----------9------|
A|--------7--------|
E|-----------------|
  oh, for him
Comments