Coldplay - In My Place Chords & Tabs

 

In My Place Chords & Tabs

Coldplay Chords & Tabs

Version: 3 Type: Bass Tab 0 ratings
1 star 2 stars 3 stars 4 stars 5 stars
comments

In My Place Bass Tab

-------------------------------------------------------------------------------
			     In My Place - Coldplay
-------------------------------------------------------------------------------
Tabbed by: johnc27
Email: j0hnc86@yahoo.com



Well here are the bass tabs for In My Place by Coldplay. I am 100% sure this
is correct. Listen to the CD for rhythm patterns. 

     (drums intro)
G|---------------------------------------------------------------------------|
D|---------------------------------------------------------------------------|
A|----(drums intro, no bass)--------(drums intro, no bass)-------------------|
E|---------------------------------------------------------------------------|

     (intro)
G|--------------------------------------------------------------------------|
D|-7-6-6-6---------7-4-4-4---------7-6-6-6---------7-4-4-4------------------|
A|---------4-7-7-7---------4-7-7-7---------4-7-7-7---------4-7-7-7----------|
E|--------------------------------------------------------------------------|

     (verse 1)
G|--------------------------------------------------------------------------|
D|-7-6-6-6---------7-4-4-4---------7-6-6-6---------7-4-4-4------------------|
A|---------4-7-7-7---------4-7-7-7---------4-7-7-7---------4-7-7-7----------|
E|--------------------------------------------------------------------------|
[ Tab from: http://www.guitartabs.cc/tabs/c/coldplay/in_my_place_btab_ver_3.html ]
     (chorus)
G|---------2-4-2-1-----------2-4-2-1-----------2-4-2-1----------------------|
D|-0-0-0-0---------2-0-0-0-0---------2-0-0-0-0---------2-0-0-0-0-2-2-2-2----|
A|--------------------------------------------------------------------------|
E|--------------------------------------------------------------------------|
 
     (interlude)                   (verse 2)
G|--------------------------------------------------------------------------|
D|-7-6-6-6---------7-4-4-4---------7-6-6-6---------7-4-4-4------------------|
A|---------4-7-7-7---------4-7-7-7---------4-7-7-7---------4-7-7-7----------|
E|--------------------------------------------------------------------------|


G|---------------------------------------------|
D|-7-6-6-6---------7-4-4-4---------------------|
A|---------4-7-7-7---------4-7-7-7-------------|
E|---------------------------------------------|

     (chorus)
G|---------2-4-2-1-----------2-4-2-1-----------2-4-2-1----------------------|
D|-0-0-0-0---------2-0-0-0-0---------2-0-0-0-0---------2-0-0-0-0-2-2-2-2----|
A|--------------------------------------------------------------------------|
E|--------------------------------------------------------------------------|

     (solo)
G|--------------------------------------------------------------------------|
D|----(guitar solo, no bass)-----------(guitar solo, no bass)---------------|
A|--------------------------------------------------------------------------|
E|--------------------------------------------------------------------------|

     (bridge)
G|--------------------------------------------------------------------------|
D|-7-6-6-6---------7-4-4-4---------7-6-6-6---------7-4-4-4---------7--------|
A|---------4-7-7-7---------4-7-7-7---------4-7-7-7---------4-7-7-7----------|
E|--------------------------------------------------------------------------|



Thats about it. Please send questions/comments/corrections to j0hnc86@yahoo.com.
Happy playing!


===============================================================================
Comments