Coldplay - In My Place Chords & Tabs

 

In My Place Chords & Tabs

Coldplay Chords & Tabs

Version: 1 Type: Bass Tab 0 ratings
1 star 2 stars 3 stars 4 stars 5 stars
comments

In My Place Bass Tab

   
this is very simple 
Drop D Tuning (DADG)

Intro/Verse
G|-----------------|-----------------|
D|-----------------|-----------------|
A|-------3--3-66-6-|-------3--3-66-6-|
D|-6--5------------|-6--3------------|
[ Tab from: http://www.guitartabs.cc/tabs/c/coldplay/in_my_place_btab.html ]
Chorus (Play A 3x Then Play B 1x)
  (A)                     (B)
G|---------------------| |-------|
D|---------------------| |-------|
A|-4--4--4h6-----------| |-4---6-|
D|-----------6-8-6-5-3-| |-------|

Verse  4x
Chorus 1x
Verse  3x
Chorus 1x
Guitar Solo (violin or quiet bass)
Verse  2x
Comments