Coldplay - Ill See You Soon Chords & Tabs

 

Ill See You Soon Chords & Tabs

Coldplay Chords & Tabs

Version: 1 Type: Tab 0 ratings
1 star 2 stars 3 stars 4 stars 5 stars
comments

Ill See You Soon Tab

Intro :
   
  (play three times)                                                 
e-|--------0--------0-------------0----------0-----|
B-|----5-----5---7------9-----4-----4---2h4----4---|
G-|----6---------8------9-----4---------4--------4-|
D-|------------------------------------------------|
A-|----4---------6------7-----2---------2----------|
E-|------------------------------------------------|
     
e-|-------0---------0--------0---------0-----|
B-|--10-----10---9----9---4----4--2h4----4---|
G-|--11-----11---9--------4-------4--------4-|
D-|------------------------------------------|
A-|--9-----------7--------2-------2----------|
E-|------------------------------------------|

Verse:

"So you lost your trust..."

(play four times)
e-|--------0-------------------0----------0-----|
B-|----5-----5---7---9-----4-----4---2h4----4---|
G-|----6---------8---9-----4---------4--------4-|
D-|---------------------------------------------|
A-|----4---------6---7-----2---------2----------|
E-|---------------------------------------------|

Chorus:

"In a bullet-proof vest..."

(play three times)
e-|--2/9----9---------------------0----------0-----|
B-|--5/10-----10--------9-----4-----4---2h4----4---|
G-|--4/9---------9------9-----4---------4--------4-|
D-|--2/7-------------------------------------------|
A-|--2/7----------------7-----2---------2----------|
E-|------------------------------------------------|

"...when all you want is friends...I'll see you soon..."
[ Tab from: http://www.guitartabs.cc/tabs/c/coldplay/ill_see_you_soon_tab.html ]
e-|---------------------------0----------0-----|
B-|-------10-----10\9-----4-----4---2h4----4---|
G-|------9------9---------4---------4--------4-|
D-|--------------------------------------------|
A-|----7------7-----------2---------2----------|
E-|--------------------------------------------|

Verse 
Chorus

and then...

Outro:

"I know, ya lost your trust..."

e-|-------0---------0--------0---------0-----|
B-|--10-----10---9----9---4----4--2h4----4---|
G-|--11-----11---9--------4-------4--------4-|
D-|------------------------------------------|
A-|--9-----------7--------2-------2----------|
E-|------------------------------------------|

Lyrics:

Verse 1:

So you lost your trust
And you never should have,
You never should have.
But don't break your back
If you ever see this,
But don't answer that.

Chorus:

In a bulletproof vest
With the windows all closed
I'll be doin' my best
I'll see ya soon.

In a telescope lens
And when all you want is friends...
I'll see ya soon.

Verse 2:

So they came for you
They came snappin' at your heels,
They came snappin' at your heels.
But don't break your back
If you ever say this,
But don't answer that.

Chorus:

In a bulletproof vest
With the windows all closed
I'll be doin' my best
I'll see ya soon.

In a telescope lens
And when all you want is friends...
I'll see ya soon.

Outro:

I know, you lost your trust.
I know, you lost your trust.
I know, don't lose your trust.
I know, you lost your trust.
Comments