Coldplay - God Put A Smile Upun Your Face Chords & Tabs

 

God Put A Smile Upun Your Face Chords & Tabs

Coldplay Chords & Tabs

Version: 1 Type: Tab 0 ratings
1 star 2 stars 3 stars 4 stars 5 stars
comments

God Put A Smile Upun Your Face Tab

   
God put a smile upon your face

A rush of blood to the head

INTRO:

Only acoustic guitar:

C#|---0---0-----0---0-----0---0-----0-----0---|
G#|---0---0-----0---0-----0---0-----0-----0---|
 E|-------------------------------------------|
 B|-2---2---2-5---5---5-4---4---4-3---3-3---3-|
F#|-2---2---2-5---5---5-4---4---4-3---3-3---3-|
C#|-0---0---0-3---3---3-2---2---2-1---1-1---1-| x2

VERSE:

Only acoustic guitar:

C#|---0---0-----0---0-----0---0-----0-----0---|
G#|---0---0-----0---0-----0---0-----0-----0---|
 E|-------------------------------------------|
 B|-2---2---2-5---5---5-4---4---4-3---3-3---3-|
F#|-2---2---2-5---5---5-4---4---4-3---3-3---3-|
C#|-0---0---0-3---3---3-2---2---2-1---1-1---1-| x4

Acoustic guitar:

C#|---0---0-----0---0-----0---0-----0-----0---|
G#|---0---0-----0---0-----0---0-----0-----0---|
 E|-------------------------------------------|
 B|-2---2---2-5---5---5-4---4---4-3---3-3---3-|
F#|-2---2---2-5---5---5-4---4---4-3---3-3---3-|
C#|-0---0---0-3---3---3-2---2---2-1---1-1---1-| x2

Electric guitar:

E|-9-7---7--7-------------9-7---7---7-7----------|
B|-----9------9---8----7------9---9-----9---8--7-|
G|--------------9-------------------------9------|
D|-----------------------------------------------|
A|-----------------------------------------------|
E|-----------------------------------------------|

Only acoustic guitar:

C#|---0---0-----0---0-----0---0-----0-----0---|
G#|---0---0-----0---0-----0---0-----0-----0---|
 E|-------------------------------------------|
 B|-2---2---2-5---5---5-4---4---4-3---3-3---3-|
F#|-2---2---2-5---5---5-4---4---4-3---3-3---3-|
C#|-0---0---0-3---3---3-2---2---2-1---1-1---1-| x4

CHORUS:

Acoustic guitar:

C#|--0--0--0--0--0--0--0--0--0--0-0-0-0-0-0-0--0-0-0-0-0-0-0-|
G#|--0--0--0--0--0--0--0--0--0--0-0-0-0-0-0-0--0-0-0-0-0-0-0-|
 E|--9--9--9--9--9--9--9--9--9--4-4-4-4-4-4-4--6-6-6-6-6-6-6-|
 B|-10-10-10-10-10-10-10-10-10--5-5-5-5-5-5-5--7-7-7-7-7-7-7-|
F#|-10-10-10-10-10-10-10-10-10--5-5-5-5-5-5-5--7-7-7-7-7-7-7-|
C#|--8--8--8--8--8--8--8--8--8--3-3-3-3-3-3-3--5-5-5-5-5-5-5-| x4
Electric guitar:

E|-------------------------------------------------------------------|
B|-14-14-14-14-14-14-14-14-14-14-14-14-14-14-12-12-12-12-12-12-12-12-|
G|-------------------------------------------------------------------|
D|-------------------------------------------------------------------|
A|-------------------------------------------------------------------|
E|-------------------------------------------------------------------|

E|-------------------------|
B|-11-11-11-11-11-11-11-11-|
G|-------------------------|
D|-------------------------|
A|-------------------------|
E|-------------------------| x4

VERSE:

Acoustic guitar:
[ Tab from: http://www.guitartabs.cc/tabs/c/coldplay/god_put_a_smile_upun_your_face_tab.html ]
C#|---0---0-----0---0-----0---0-----0-----0---|
G#|---0---0-----0---0-----0---0-----0-----0---|
 E|-------------------------------------------|
 B|-2---2---2-5---5---5-4---4---4-3---3-3---3-|
F#|-2---2---2-5---5---5-4---4---4-3---3-3---3-|
C#|-0---0---0-3---3---3-2---2---2-1---1-1---1-| x2

Electric guitar:

E|-9-7---7--7-------------9-7---7---7-7----------|
B|-----9------9---8----7------9---9-----9---8--7-|
G|--------------9-------------------------9------|
D|-----------------------------------------------|
A|-----------------------------------------------|
E|-----------------------------------------------|

Only acoustic guitar:

C#|---0---0-----0---0-----0---0-----0-----0---|
G#|---0---0-----0---0-----0---0-----0-----0---|
 E|-------------------------------------------|
 B|-2---2---2-5---5---5-4---4---4-3---3-3---3-|
F#|-2---2---2-5---5---5-4---4---4-3---3-3---3-|
C#|-0---0---0-3---3---3-2---2---2-1---1-1---1-| x2

Electric guitar:

E|-----------|
B|-2-2-2-2-2-2-2-2-2-2-2-2-2-2-2-2-2-2------|
G|--------------------|
D|-----------------------------------------------|
A|-----------------------------------------------|
E|-----------------------------------------------|

Acoustic guitar:

C#|---0---0-----0---0-----0---0-----0-----0---|
G#|---0---0-----0---0-----0---0-----0-----0---|
 E|-------------------------------------------|
 B|-2---2---2-5---5---5-4---4---4-3---3-3---3-|
F#|-2---2---2-5---5---5-4---4---4-3---3-3---3-|
C#|-0---0---0-3---3---3-2---2---2-1---1-1---1-| x


CHORUS:

Acoustic guitar:

C#|--0--0--0--0--0--0--0--0--0--0-0-0-0-0-0-0--0-0-0-0-0-0-0-|
G#|--0--0--0--0--0--0--0--0--0--0-0-0-0-0-0-0--0-0-0-0-0-0-0-|
 E|--9--9--9--9--9--9--9--9--9--4-4-4-4-4-4-4--6-6-6-6-6-6-6-|
 B|-10-10-10-10-10-10-10-10-10--5-5-5-5-5-5-5--7-7-7-7-7-7-7-|
F#|-10-10-10-10-10-10-10-10-10--5-5-5-5-5-5-5--7-7-7-7-7-7-7-|
C#|--8--8--8--8--8--8--8--8--8--3-3-3-3-3-3-3--5-5-5-5-5-5-5-| x4

Electric guitar:

E|-------------------------------------------------------------------|
B|-14-14-14-14-14-14-14-14-14-14-14-14-14-14-12-12-12-12-12-12-12-12-|
G|-------------------------------------------------------------------|
D|-------------------------------------------------------------------|
A|-------------------------------------------------------------------|
E|-------------------------------------------------------------------|

E|-------------------------|
B|-11-11-11-11-11-11-11-11-|
G|-------------------------|
D|-------------------------|
A|-------------------------|
E|-------------------------| x4

Only acoustic guitar:

C#|---0---0-----0---0-----0---0-----0-----0---|
G#|---0---0-----0---0-----0---0-----0-----0---|
 E|-------------------------------------------|
 B|-2---2---2-5---5---5-4---4---4-3---3-3---3-|
F#|-2---2---2-5---5---5-4---4---4-3---3-3---3-|
C#|-0---0---0-3---3---3-2---2---2-1---1-1---1-| x2
Comments