Coldplay - God Put A Smile Upon Your Face Chords & Tabs

 

God Put A Smile Upon Your Face Chords & Tabs

Coldplay Chords & Tabs

Version: 2 Type: Tab 0 ratings
1 star 2 stars 3 stars 4 stars 5 stars
comments

God Put A Smile Upon Your Face Tab

   
#-----------------------------------------------------------------------------#
#-- File created with Instab - http://www.pconline.com/~smcarey/instab.html --#
#-----------------------------------------------------------------------------#

Author/Artist: Coldplay
Title: God put a smile upon your face
Transcribed by: Andrew Biles

Well personally I've been wanting to learn this song for a while but I couldn't
find a tab that I liked.  I could hear the ring of the 'D' open chord sound but
none of the tabs included it the way I heard it, so I finally decided, detune
your guitar and work it out.  So here it is.

For the tuning all you want to do is tune the B string up one fret to create
the C then make everything sharp with the capo.
TUNING - E, A, D, G, C, E - then Capo 1
All tab is relative to the capo


|---0---0-----0---0-----0---0----0----0----0---0----0---0----0---0----0----0--
|---0---0-----0---0-----0---0----0----0----0---0----0---0----0---0----0----0--
|---5---5-----5---5-----5---5----5----5----5---5----5---5----5---5----5----5--
|---5---5-----5---5-----5---5----5----5----5---5----5---5----5---5----5----5--
|-3--------6---------5---------5----4----3--------6--------5--------4----4----
|-----------------------------------------------------------------------------


|-----------------------------------------------------------------------
|-----------------------------------------------------------------------
|-5--------5---------5---------5----5----5--------5--------5--------5---
|-5--------5---------5---------5----5----5--------5--------5--------5---
|-3--------6---------5---------5----4----3--------6--------5--------4---
|-----------------------------------------------------------------------
 Rhythm (guitar 2, added in on cd recording)                      

|-8/6---6---6------------------
|-----7-------7---6----5/---0--
|---------------8--------------
|------------------------------
|------------------------------
|------------------------------
 Lead                              

|---------------------------------------------------------------------------
|---------------------------------------------------------------------------
|-5-------------8------------------------------5----------------8-----------
|-5-------------8-----------------8------------5----------------8-----------
|-3-------------6-----------------8------------3----------------6-----------
|---------------------------------6-----------------------------------------
  Now, when you work it out I'm worse than you.  Yeah, when you work it out,
[ Tab from: http://www.guitartabs.cc/tabs/c/coldplay/god_put_a_smile_upon_your_face_tab_ver_2.html ]
-----------------------------------------------------------------------------
-----------------------------------------------------------------------------
-------------5---------------8-----------------------------------------------
-----8-------5---------------8-----------------8---------6-------------------
-----8-------3---------------6-----------------8---------6-------------------
-----6-----------------------------------------6---------4-------------------
 I wanted to.  Now, when you work out where to draw the line.  Your guess is 

------------------|
------------------|
----3-------------|
----3-------3-----|
----1-------3-----|
------------1-----|
 as good as mine.                                                 

|-----------------------------------------------------------------
|-----------------------------------------------------------------
|-5-5-5-5-5-5-5-5-5-5-5-5-5-5-5-5-5-5-5-5-5-5-5-5-5-5-5-5-7-8-7-5-
|-----------------------------------------------------------------
|-----------------------------------------------------------------
|-----------------------------------------------------------------
 Lead                                                     

|--------------------------------------------------------
|--------------------------------------------------------
|-----------------5------8-----------------5------8------
|-----------------5------8----8------------5------8----8-
|-----------------3------6----8------------3------6----8-
|-----------------------------6------------------------6-
  It's as good as miiiiiiiine.  As good as miiiiiiiine.                    

------0--|
-----0---|
----5----|
---5-----|
--5------|
---------|
 Play for outro
________________________
Lyrics:

Where do we go nobody knows?
I've gotta say I'm on my way down
God give me style and give me grace
God put a smile upon my face
Where do we go to draw the line?
I've gotta say I wasted all your time, (oh honey honey)
Where do I go to fall from grace?
God put a smile upon your face, yeah

Now, when you work it out I'm worse than you
Yeah, when you work it out I wanted to
Now, when you work out where to draw the line
Your guess is as good as mine

Where do we go nobody knows?
Don't even say you're on your way down, (when)
God gave you style and gave you grace
And put a smile upon your face, ah yeah

Now, when you work it out I'm worse than you
Yeah, when you work it out I wanted to
Now, when you work out where to draw the line
Your guess is as good as mine
Its as good as mine [x7]

Where do we go nobody knows?
Don't even say you're on your way down, (when)
God gave you style and gave you grace
And put a smile upon your face
Comments