Coldplay - Fix You Chords & Tabs

 

Coldplay Chords & Tabs

Version: 1 Type: Tab 0 ratings
1 star 2 stars 3 stars 4 stars 5 stars
comments

Fix You Tab

Song Title: Fix You
Artist: Coldplay
Album: X & Y
Tabbed by GuitarSuperstar

(Tab based on performance on SNL.)

Standard Tuning
Electric Guitar w/delay

Verse 1 (guitar silent)

Chorus:

Lights will guide you home...
e-----------------------------------------|
B--4---4----4---4---------6---6----6---6--|
G--3h5------3h5----3------5h7------5h7----|  Play 2x
D-----------------------------------------|
A-----------------------------------------|
E-----------------------------------------|

e--------------------------------|
B--4---4----4---4---------6---6--|
G--3h5------3h5----3------5h7----|
D--------------------------------|
A--------------------------------|
E--------------------------------|

e-----11-----10-----11-----10--|
B------------------------------|
G--12-----12-----12-----12-----|
D------------------------------|
A------------------------------|
E------------------------------|

Verse 2:
[ Tab from: http://www.guitartabs.cc/tabs/c/coldplay/fix_you_tab.html ]
High up above and down below...
e----11-----10-----11-----10---|
B--11-----11-----11-----11-----|
G------------------------------|  Play 4x
D------------------------------|
A------------------------------|
E------------------------------|

Play Chorus above then:

Outro:

e----------------------------------------------------------------------------|
B--4-4-4-4-4-4-4-4-4-4-4-4/11-11-11-11\4-4-4-4-4-4-4-4-4-4-4-4/11-11-11-11\--|
G----------------------------------------------------------------------------|
D----------------------------------------------------------------------------|
A----------------------------------------------------------------------------|
E----------------------------------------------------------------------------|

e---------------------------------------------------------------------------|
B--4-4-4-4-4-4-4-4-4-4-4-4/11-11-11-11/4-4-4\3-3-3-3-3-3-3-3-3-3-3-3-3-3-3--|
G---------------------------------------------------------------------------|
D---------------------------------------------------------------------------|
A---------------------------------------------------------------------------|
E---------------------------------------------------------------------------|

Repeat until end of song.
Comments