Coldplay - Fix You Chords & Tabs

 

Fix You Chords & Tabs

Coldplay Chords & Tabs

Version: 1 Type: Bass Tab 0 ratings
1 star 2 stars 3 stars 4 stars 5 stars
comments

Fix You Bass Tab

Standard tunning

G |--------------------------------------------|
D |--------------------------------------------|  4X
A |------9-10-13-15-13-----------9-10----------|
E |-11-11---------------11--11-11------10-8-6--|
[ Tab from: http://www.guitartabs.cc/tabs/c/coldplay/fix_you_btab.html ]
G |--------------------|
D |--------------------|
A |-------9-10---------|  2X
E |-11-11------10-8-6--|

G |--------------------------------------|
D |--------------------------------------|
A |---------11-(16X)---------------------|
E |-11-(16X)---------11-(16X)--10-(16X)--|



its pretty easy so enjoy!!!
Comments