Coldplay - Daylight Chords & Tabs

 

Daylight Chords & Tabs

Coldplay Chords & Tabs

Version: 3 Type: Tab 0 ratings
1 star 2 stars 3 stars 4 stars 5 stars
comments

Daylight Tab

Coldplay
"Daylight"
(A Rush of Blood to the Head)

In my opinion one of the best songs on the album.
I'm not to clear as to what kind of effects they use on the guitar.
It almost sounds like a violin. If anyone knows, send me an e-mail (Robber2140@msn.com)

Standard Tuning
/=slide up
\=slide down

You need to use a slide for every part of the song in order to sound more accurate.

Intro

e---------------------------------------------------
b---------------------------------------------------
g---------------------------------------------------
d-2-2/-3-3/-5--5/8-8-8\-2-2/-3-3/-5--5/8-8-8--------
a---------------------------------------------------
E---------------------------------------------------

Chorus (Slide must be on all three strings)

e---------------------------------------------------------------------------
b---------------------------------------------------------------------------
g---------------------------------------------------------------------------
d-12--12--12--12--12-12-/-13--13--13--13--13-13-/-14--14--14--14--14-14-\---
a--12--12--12--12--12-12/--13--13--13--13--13-13/--14--14--14--14--14-14\---
E---12--12--12--12------/---13--13--13--13------/---14--14--14--14------\---
[ Tab from: http://www.guitartabs.cc/tabs/c/coldplay/daylight_tab_ver_3.html ]
e----------------------------------------------------------------------------
b----------------------------------------------------------------------------
g----------------------------------------------------------------------------
d-13--13--13--13--13-13---\-12--12--12--12--12-12---/-13--13--13--13--13-13-/
a--13--13--13--13--13-13--\--12--12--12--12--12-12--/--13--13--13--13--13-13/
E---13--13--13--13--------\---12--12--12--12--------/---13--13--13--13------/

e----------------------------------------------------------------------------
b----------------------------------------------------------------------------
g----------------------------------------------------------------------------
d-14--14--14--14--14-14--/-15--15--15--15--15-15--\-12--12--12--12--12-12--/-
a--14--14--14--14--14-14-/--15--15--15--15--15-15-\--12--12--12--12--12-12-/-
E---14--14--14--14-------/---15--15--15--15-------\---12--12--12--12-------/-

e-------------------------
b-------------------------
g-------------------------
d-13--13--13--13--13-13---
a--13--13--13--13--13-13--
E---13--13--13--13--------

At the very end of the song Jon plays this small piece. (with the slide)

e-12-9-12-9-12-9-13-12-9-9-9 repeat until the song fades out.
b---------------------------
g---------------------------
d---------------------------
a---------------------------
E---------------------------

That's all there is to the song.
If anyone wants to correct me feel free, it's my first tab.
Comments