Coldplay - Daylight Chords & Tabs

 

Daylight Chords & Tabs

Coldplay Chords & Tabs

Version: 1 Type: Bass Tab 0 ratings
1 star 2 stars 3 stars 4 stars 5 stars
comments

Daylight Bass Tab

----------------------------------------------------------------------------
			     DAYLIGHT - Coldplay
----------------------------------------------------------------------------

Tabbed By : Victor "The Yellow Dart" Wolf  
e-mail: vwolf@newkirk.k12.ok.us 

Tuning: Standard

I was looking for something to tab and 
listened to this and thought, "hey, I can 
tab this!", and here we are. Have fun, and fish on. 

 * = played only second time through

====== 
Intro 
======

G|---------------------------------------------------------|
D|---------0-0-0-0-0-0---------------------*---------------|
A|-2-2-2-2-------------4-4-4-4-4-4-4-4-4-4-2---------------| 2x
E|---------------------------------------------------------|

========
Verse 1
========

G|-----9-9-4-----9-9-4-----9-9-4-----9-9-4-----------------|
D|-2-2-------5-5-------4-4-------4-4-----------------------|
A|---------------------------------------------------------|
E|---------------------------------------------------------|

========
Chorus
========

Sorry about the spacing here; I had to make it fit.
[ Tab from: http://www.guitartabs.cc/tabs/c/coldplay/daylight_btab.html ]
G|------------------------------------------|
D|-----------00000000004444444444-----------|
A|-0000000000--------------------0000000000-| 2x
E|------------------------------------------|

G|---------------------------------------------------------|
D|-6-6-6-6-6-6-6-6-6-6-0-0-0-0-0-0-0-0-0-0-4---------------|
A|---------------------------------------------------------|
E|---------------------------------------------------------|

=========
Verse 2
=========

First do verse one until guitar comes in, then start doing this.

G|-----9-9-4-----9-9-4-----11-11-6-----11-11-6-------------|
D|-2-2-------5-5-------4-4---------4-4---------------------|
A|---------------------------------------------------------|
E|---------------------------------------------------------|

Chorus again.

========
Ending
========

G|-9-6-4-6-4-2-------------------------|
D|-------------2-4-4-4-4---------------|
A|-------------------------------------|
E|-------------------------------------|

G|-11-6-4-6-4-2------------------------|
D|--------------2-4-4-4-4--------------|
A|-------------------------------------|
E|-------------------------------------|


Thanks for printing my tabs. Only read this If you Printed it.
Comments