Coldplay - Always Chords & Tabs

 

Always Chords & Tabs

Coldplay Chords & Tabs

Version: 1 Type: Tab 2 ratings
1 star 2 stars 3 stars 4 stars 5 stars
comments

Always Tab

 
 Coldplay - Always (new release) 




Artist: Coldplay
Song: Always

Tabbed by: Alex (alexacoustically@hotmail.com)

  I searched kazaa for any new releases from Coldplay,
and one of them I found was called 'Always'. It's so short
that it makes me wonder if it's completely finished; it's
only 46 seconds! I searched the web and didn't find glimmer of 
resemlence, so this is what I wrote up.
  It's pretty simple, and I'm 99% sure it's right. You'll notice
there's a lot of screeching as you slide up and down the frets,
just like in the song; which assertifies my confidence in this tab's
accuracy. 

  Intro.

e-----------------------------------------------------------------
B-----------------------------------------------------------------
G----8---8----4---4----8---8----4---4-----2---2----2---2----------
D------9--------6--------9--------6---------4--------4------------
A-----------------------------------------------------------------
E--7--------4--------7--------4---------2--------2----------------

e-----------------------------------------------------------------
B-----------------------------------------------------------------
G------1---1------------------------------------------------------
D--------2-----(2)------------------------------------------------
A-----------------------------------------------------------------
E--2-0-------0----(0)---------------------------------------------

 end intro.

  r = let it ring
  (2) = parenthesized numbers are ghost notes
  * = pluck quickly
  slow = slower paced between ( )
  ! = strong pluck
     In a haze,  stormy haze,  i'll be round, i'll be loving you always         al--   

e--------------------------------------------------------------------------------------
B----( slow )------------------( slow )-----------------------------------------****---
G----8-----8---------4---4-----8-----8---------4---6---------------2---2----2---2------
D-------9--------------6----------9--------------6-------------------4--------4--4-----
A---------------------------------------------------------------------------------4----
E--7---------------4---------7---------------4-------------------2--------2--------0r--

---ways 

e----------------
B--***-----------
G---1--1-----1!--
D----2-----------
A----2-----------
E--0------0r-----

    Here I am and I take my time   Here in a waken lot                 away           al--
[ Tab from: http://www.guitartabs.cc/tabs/c/coldplay/always_tab.html ]
e--------------------------------------------------------------------------------------------
B----( slow )------------------------( slow )-----------------------------------------****---
G----8-----8---------4---4-----------8---------------4---6---------------2---2----2---2------
D-------9--------------6-------------------------------6-------------------4--------4--4-----
A---------------------------------------------------------------------------------------4----
E--7---------------4---------------7----7---7------4-------------------2--------2--------0r--

---ways

e----------------
B----------------
G---1---1--------
D-----2----------
A-----2----------
E--0-------0r----

When playing, just slide up and down with your index finger capoing
the lowest notes and hold down string A and D with your ring finger
and pinky consecutively, and your middle finger'll  hold the G string
occasionally. When down to the lowest plucking, just hold an E chord.
That ought to wrap it up. Good luck.

       and don't forget to HAVE FUN!!!

Here's a clean, After-intro without the words:



e-----------------------------------------------------------------
B---(slow )-----------(slow )--------------------------****-------
G----8---8----4---4----8---8----4---4-----2---2----2---2----------
D------9--------6--------9--------6---------4--------4--4---------
A--------------------------------------------------------4--------
E--7--------4--------7--------4---------2--------2--------0r------

e-----------------------------------------------------------------
B--****-----------------------------------------------------------
G---1---1---------------------------------------------------------
D-----2-----------------------------------------------------------
A-----2-----------------------------------------------------------
E--0-------0r-----------------------------------------------------

e-----------------------------------------------------------------
B---(slow )-----------(slow )--------------------------****-------
G----8---8----4---4----8--------4---4-----2---2----2---2----------
D------9--------6-----------------6---------4--------4--4---------
A--------------------------------------------------------4--------
E--7--------4--------7---7-7--4---------2--------2--------0r------

e-----------------------------------------------------------------
B--****-----------------------------------------------------------
G---1---1---------------------------------------------------------
D-----2-----------------------------------------------------------
A-----2-----------------------------------------------------------
E--0-------0r-----------------------------------------------------




Comments