Coldplay - 42 Chords & Tabs

 

42 Chords & Tabs

Coldplay Chords & Tabs

Version: 1 Type: Tab 0 ratings
1 star 2 stars 3 stars 4 stars 5 stars
comments

42 Tab

   
Song: 42
Artist: COLDPLAY
Album: VIVA LA VIDA
Tabbed by: JARED LINDSTROM (jadex2009@hotmail.com)
Date Tabbed: 06-08-08

I didn't really get the entire song, but mainly to lead guitar parts. The most 
ones. So here you go, it's pretty easy once you get the hang of it.

(^ means bend note up or down to match the fallowing)

Time part starts: 01:47

E[------------------------------------------------------------------]
B[10--6-8--6---6--8^9^8--6--6--10--6-8--6---6--8^9^8--6--6--10--6-8-]
G[------------------------------------------------------------------]
D[------------------------------------------------------------------]
A[------------------------------------------------------------------]
E[------------------------------------------------------------------]

                               -(x4)-

E[------------------------------------------------------------------]
B[9--9--9-9--9--9--9--9-9--9--9--9-9--11--6--10--6-8----------------]
G[------------------------------------------------------------------]
D[------------------------------------------------------------------]
A[------------------------------------------------------------------]
E[------------------------------------------------------------------]


G#
You thought you might be a ghost

You thought you might be a ghost
C#
You didn't get to heaven but you made it close

You didn't get to heaven but you made it close

G#
You thought you might be a ghost

You thought you might be a ghost
C#
You didn't get to heaven but you made it close

You didn't get to heaven but you oh oh

Oh oh…

[ Tab from: http://www.guitartabs.cc/tabs/c/coldplay/42_tab.html ]
E[------------------------------------------------------------------]
B[---------------------6----------------------6---------------------]
G[--8-8-5--8--8--8-8-8-----8-8-5--8--8--8-8-8-----------------------]
D[------------------------------------------------------------------]
A[------------------------------------------------------------------]
E[------------------------------------------------------------------]


E[------------------------------------------------------------------]
B[------------------------------------------------------------------]
G[-------------------3-----------------------3----------------------]
D[--6-6-3--6--6--6-6---3----6-6-3--6--6--6-6---3--------------------]
A[------------------------------------------------------------------]
E[------------------------------------------------------------------]


E[------------------------------------------------------------------]
B[---------------------6----------------------6---------------------]
G[--8-8-5--8--8--8-8-8-----8-8-5--8--8--8-8-8-----------------------]
D[------------------------------------------------------------------]
A[------------------------------------------------------------------]
E[------------------------------------------------------------------]


E[------------------------------------------------------------------]
B[------------------------------------------------------------------]
G[-------------------3-------------------5--3----5--3---------------]
D[--6-6-3--6--6--6-6---3----6-6-3--6--6-------6-------6~------------]
A[------------------------------------------------------------------]
E[------------------------------------------------------------------]

Thus ending the guitar parts for that song. I haven't figured out the notes played 
the piano parts in the beginning and very end. So if you guys figure them out then tell me. 
a million!
Comments