Cold War Kids - Hospital Beds Chords & Tabs

 

Hospital Beds Chords & Tabs

Cold War Kids Chords & Tabs

Version: 2 Type: Bass Tab 0 ratings
1 star 2 stars 3 stars 4 stars 5 stars
comments

Hospital Beds Bass Tab

Cold War Kids
Hospital Beds
Robber & Cowards

Saw the other tab on here for this song. It was pretty much spot on except it missed the 
pre-verse and the extended second verse. It would have pretty easy to figure out but I 
felt like posting a tab anyway. It's my first, so enjoy!

~ = Ring out

Piano (0:00)

Pre-Verse (0:09)
G|-----------------------|
D|-44---------44---------|
A|----4~---7~----4~------|
E|-------55---------55-0~|

Verse 1 (0:20)
G|-----------------------|-----------------------|
D|-44---------44---------|-44---------44---------|
A|----4~---7~----4~------|----4~---7~----4~------|
E|-------55---------55-0~|-------55---------55-0~|

G|------------|
D|-44---------|
A|----4~------|
E|-------55-0~|

Verse 2 (0:45)
G|-----------------------|-----------------------|
D|-44---------44---------|-44---------44---------|
A|----4~---7~----4~------|----4~---7~----4~------|
E|-------55---------55-0~|-------55---------55-0~|
[ Tab from: http://www.guitartabs.cc/tabs/c/cold_war_kids/hospital_beds_btab_ver_2.html ]
G|-----------------------|-----------------------|
D|-44---------44---------|-44---------44---------|
A|----4~---7~----4~------|----4~---7~----4~------|
E|-------55---------55-0~|-------55---------55-0~|

G|------------|
D|-44---------|
A|----4~------|
E|-------55-0~|

Chorus (1:31) The chorus seems to vary a bit but this is what it sounds like to me.
G|--------------------------------|
D|--------------------------------|
A|4~-442----------4~-442-7~-777---|
E|-------0~-000-------------------|

G|--------------------------------|
D|--------------------------------| x2
A|4~-442----------4~-442-7777777--|
E|-------0~-000-------------------|

G|--------------------------------|
D|--------------------------------|
A|4~-442----------4~-442-7~-------|
E|-------0~-000-------------------|

Verse 3 (2:23)
G|-----------------------|
D|-4~---------4~---------| x5
A|----4~---7~----4~------|
E|-------5~---------5~-0~|

Chorus 2 (3:12)
G|--------------------------------|--------------------------------|
D|--------------------------------|--------------------------------| x2
A|4~-442----------4~-442-7~-777---|4~-442----------4~-442-7777777--|
E|-------0~-000-------------------|-------0~-000-------------------|

Outro
GOING TO FINISH THIS AS SOON AS I'VE MASTERED IT.
Comments